Site hosted by Angelfire.com: Build your free website today!


MoneyChords
Resources

Chords & Lyrics

Chord Progression (MoneyChords)

Notes on Series

MoneyChords
Store

Something

Here are the fingerings that I use to play a chord-melody arrangement of George Harrison's 1969 hit Something from The Beatles' "Abbey Road" Album. I play it in the original key of C, however, it modulates to the key of A in the bridge. The song is played in a slow 4/4 rock ballad tempo.

   F       Eb G/D    C                    Cmaj7
E-----------------||--------------------|-----------| 
B-----1--------0--||--1--1--1--1--1--1--|--0-----0--|
G--2-----2--3--0--||--0-----------0-----|--0----0---| 
D--3--------1--0--||--2-----------2-----|--2---2----| 
A-----------------||--3-----------3-----|--3--3-----| 
E-----------------||--------------------|-----------|
                    1.	                 2.

   C7                  F     C/E    D         D7   
E-------------------|------------|------------------| 
B----------1--3--1--|--1---1--1--|--3--3-3-3--1--3--|
G--3-3-3-3-3--------|--2-2-2--0--|--2---------2-----| 
D--2-------2--------|--3---3--2--|--0---------0-----| 
A--3-------3--------|--3---3--3--|------------------| 
E-------------------|--1---1--0--|------------------|
 3.                  4.           5. 

     G       Am7 G/B         Am             Am(M7)
E------------------------|--------------------------| 
B----0--------1--3-------|-------1-----3-----1------|
G----0--2--0--0--0--0----|----2-----2-----2--1--2---| 
D----0--------2--0-------|----2--------------2------| 
A-------------0--2-------|----0--------------0------| 
E----3-------------------|--------------------------|
 6.                       7.
                  
  Am7             D7/F#    F       Eb G/D      A
E--0-----------0--------|-----------------||--------| 
B--1--3--1--3-----1-----|-----1--------0--||---2----|
G--0--------------2--2--|--2-----2--3--0--||---2----| 
Dó-2--------------0-----|--3--------1--0--||---2----| 
A--0--------------------|-----------------||---0----| 
E-----------------2-----|-----------------||--------|
 8.                      9.                10.

   A        C#m           F#m A        D     G 
E-----------------0--2--|-----0--2--|--2-----3--2---| 
B--2--2--2--2--2--------|--2--2-----|--3--3--0------|
G--2--------1-----------|--2--2-----|--2-----0------| 
D--2--------2-----------|--4--2-----|--0-----0------| 
A--0--------0-----------|--4--0-----|---------------| 
E-----------------------|--2--------|--------3------|
 11.                     12.         13.

    A                                  C#m        
E---0------------------|---------------------0--2---| 
B---2------------------|---2--2--2--2--2--2---------|
G---2------------------|---2-----------1------------| 
D---2------------------|---2-----------2------------| 
A---0------------------|---0-----------0------------| 
E-----[4--3--2--1--0]--|----------------------------|
 14.                    15.                         

  F#m  A        D     G        C
E------0--2--|--2-----3--2--|--0-------------------|| 
B--2---2-----|--3--3--0-----|--1-------------------||
G--2---2-----|--2-----0-----|--0-------------------|| 
D--4---2-----|--0-----0-----|--2-------------------|| 
A--4---0-----|--------------|--3--[2--0--------0]--|| 
E--2---------|--------3-----|-----------3-0-3------||
 16.          17.            18.

About Us | Chord Progressions | F.A.Q. | Freebies | Guitar Chords | Guitar Lessons | Home Page | Links | Music News | Site Search | Songwriting | Standards | Store | Tablature | WebRings Copyright © 2004 - 2007 MoneyChords.com