One Note Samba Chord Melody

MoneyChords
Resources

Discussion (Jazz Guitar Group)

Vanilla Changes

MoneyChords
Store

One Note Samba

Below are two possible chord-melody arrangements for the 16-bar A section of One Note Samba in the key of C.

Arrangement #1:

   Em7            Eb7            Dm11         Db7b5
e--------------|--------------|--------------|------|
B--8--8--8--8--|--8--8--8--8--|---8--8--8--8-|--8---|
G--7--7--7--7--|--6--6--6--6--|--10-10-10-10-|-10---|
D--9--9--9--9--|--8--8--8--8--|--10-10-10-10-|--9---|
A--7--7--7--7--|--6--6--6--6--|--------------|------|
E--------------|--------------|--10-10-10-10-|--9---|

   Em7            Eb7            Dm11         Db7b5
e--------------|--------------|--------------|------|
B--8--8--8--8--|--8--8--8--8--|---8--8--8--8-|--8---|
G--7--7--7--7--|--6--6--6--6--|--10-10-10-10-|-10---|
D--9--9--9--9--|--8--8--8--8--|--10-10-10-10-|--9---|
A--7--7--7--7--|--6--6--6--6--|--------------|------|
E--------------|--------------|--10-10-10-10-|--9---|

   Gm11           Gb7b5          Fmaj7         Bb9
e--------------|--------------|--------------|------|
B--1--1--1--1--|--1--1--1--1--|--1--1--1--1--|--1---|
G--3--3--3--3--|--3--3--3--3--|--2--2--2--2--|--1---|
D--3--3--3--3--|--2--2--2--2--|--2--2--2--2--|--0---|
A--------------|--------------|--------------|--1---|
E--3--3--3--3--|--2--2--2--2--|--1--1--1--1--|------|

  Em7            Eb7             Dm11   Db7b5  C6
e--------------|--------------|--------------|---8-||
B--8--8--8--8--|--8--8--8--8--|---8--8--8--8-|--10-||
G--7--7--7--7--|--6--6--6--6--|--10-10-10-10-|---9-||
D--9--9--9--9--|--8--8--8--8--|--10-10--9--9-|-----||
A--7--7--7--7--|--6--6--6--6--|--------------|--10-||
E--------------|--------------|--10-10--9--9-|---8-||

Arrangement #2:

Em7            Eb7            Dm11         Db7b5
e--------------|--------------|--------------|------|
B--------------|--------------|--------------|------|
G--0--0--0--0--|--0--0--0--0--|--0--0--0--0--|--0---|
D--5--5--5--5--|--5--5--5--5--|--3--3--3--3--|--3---|
A--7--7--7--7--|--6--6--6--6--|--5--5--5--5--|--4---|
E--------------|--------------|--------------|------|

   Em7            Eb7            Dm11         Db7b5
e--------------|--------------|--------------|------|
B--------------|--------------|--------------|------|
G--0--0--0--0--|--0--0--0--0--|--0--0--0--0--|--0---|
D--5--5--5--5--|--5--5--5--5--|--3--3--3--3--|--3---|
A--7--7--7--7--|--6--6--6--6--|--5--5--5--5--|--4---|
E--------------|--------------|--------------|------|

   Gm11           Gb7b5          Fmaj7         Bb9
e--------------|--------------|--------------|------|
B--1--1--1--1--|--1--1--1--1--|--1--1--1--1--|--1---|
G--3--3--3--3--|--3--3--3--3--|--2--2--2--2--|--1---|
D--3--3--3--3--|--2--2--2--2--|--2--2--2--2--|--0---|
A--------------|--------------|--------------|--1---|
E--3--3--3--3--|--2--2--2--2--|--1--1--1--1--|------|

   Em7            Eb7           Dm11   Db7b5    C
e--------------|--------------|--------------|-----||
B--------------|--------------|--------------|--1--||
G--0--0--0--0--|--0--0--0--0--|--0--0--0--0--|--0--||
D--5--5--5--5--|--5--5--5--5--|--3--3--3--3--|--2--||
A--7--7--7--7--|--6--6--6--6--|--5--5--4--4--|--3--||
E--------------|--------------|--------------|-----||


About Us | Chord Progressions | Email | F.A.Q. | Freebies | Guitar Chords | Guitar Lessons | Home Page | Links | Music News | Site Search | Songwriting | Standards | Store | Tablature | WebRings Copyright © 2004 - 2007 MoneyChords.com