MoneyChords
Resources

Chord Progression (MoneyChords)

Lyrics

MoneyChords
Store

Just The Way You Are

Here are the fingerings that I use to play a chord-melody arrangement of Billy Joel's 1977 standard Just The Way You Are. I play it in the key of G not the original key of D. The song is played in a medium 4/4 time.

Intro

   G   Cm6/G   G    C/G G     G   Cm6/G   G   C/G G
E-----------|--------0-----|-----------|-------0----||
B--------1--|--------1--3--|--------1--|-------1--3-||
G-----0--2--|-----0--0--0--|-----0--2--|----0--0--0-||
D--0-----1--|--0-----2--0--|--0-----1--|--0----2--0-||
A--2--------|--2--------2--|--2--------|--2-------2-||
E--3-----3--|--3-----3--3--|--3-----3--|--3----3--3-||

A

    G6  GM7     Em7         CM7           Dm9    G9   
E---3---7---|---3---0---|------0--3---|---0----------|
B---5---7---|---0---0---|---0--0------|---1--0---0---|
G---4---4---|---0---0---|---0--0------|---2------2---|
D-----------|---0---0---|---2--2------|---0------3---|
A---5---5---|---2---2---|---3--3------|--------------|
E---3---3---|---0---0---|-------------|----------3---|
 1.          2.          3.            4.           

    CM7          F9#11            GM7      Dm7  G9     
E-------------|--------------|----------|------------|
B---0--1--3---|--0-----------|----------|--1-3--0----|
G---0---------|--0--0--0-----|----4-----|--2----2-2--|
D---2---------|--1--1-----1--|----4-----|--0----3----|
A---3---------|--0--0--------|----------|------------|
E-------------|--1--1--------|----3-----|-------3----|
 5.            6.             7.         8.          
                       
    CM7         F7   F9     G    /F# /F      Em9 Em7    
E------------|-----------|---------------|---2---3---|
B---0--0-0---|-----------|-------0---3---|---0---0---|
G---0--------|---2---0---|---0---0---0---|---0---0---|
D---2--------|---1---1---|---0---0---0---|---0---0---|
A---3--------|-------0---|---2-----------|---2---2---|
E------------|---1---1---|---3---2---1---|---0---0---|
 9.           10.         11.             12.       
 
    Em7/A  Em9/A    A9   A13 A7     Am11      D7     
E-------0---2---|---3--5--2--0---|--------|---------||
B-------0---0---|---0--0--2--2---|---3----|----3----||
G---0---0---0---|---0--0--0--0---|---5----|----5----||
D---0---0---0---|---2--2--2--2---|---5----|----4----||
A---0---0---0---|---0--0--0--0---|--------|----5----||
E---------------|----------------|---5----|---------||
 13.             14.              15.      16.        

B

    G           C#m7b5      CM7           Em7    G9   
E---3---7---|---3-------|------0--3---|---0----------|
B---3---7---|---5---5---|---0--0------|---0--0---0---|
G---0---0---|---4---4---|---0--0------|---0------2---|
D---0---0---|-------5---|---2--2------|---0------3---|
A---2-------|---4---4---|---3--3------|---2----------|
E---3-------|-----------|-------------|---0------3---|
 17.         18.         19.           20.           

    CM7          F9#11            GM7      Dm7  G9     
E-------------|--------------|----------|------------|
B---0--1--3---|--0-----------|----------|--1-3--0----|
G---0---------|--0--0--0-----|----4-----|--2----2-2--|
D---2---------|--1--1-----1--|----4-----|--0----3----|
A---3---------|--0--0--------|----------|------------|
E-------------|--1--1--------|----3-----|-------3----|
 21.           22.            23.        24.          
                       
    CM7         F7   F9      G   /F# /F      Em9 Em7    
E------------|-----------|---------------|---2---3---|
B---0--0-0---|-----------|-------0---3---|---0---0---|
G---0--------|---2---0---|---0---0---0---|---0---0---|
D---2--------|---1---1---|---0---0---0---|---0---0---|
A---3--------|-------0---|---2-----------|---2---2---|
E------------|---1---1---|---3---2---1---|---0---0---|
 25.          26.         27.             28.       
 
      Am7       Am6           D11           
E-----0----0----2------|------------7----------------|
B-----1---------1------|------8----------5----7------|
G-----0----------------|------5----------5-----------|
D-----2---------2------|------5----------5-----------|
A-----0---------0------|------5----------5-----------|
E----------------------|-----------------------------|
 29.                    30.                      

   G  Cm6/G  G  C/G G     G   Cm6/G     G     G9
E---------|------0-----|-------------|----0---------||
B------1--|------1--3--|------1-0-1--|--3---3-0-----||
G----0-2--|----0-0--0--|----0-2------|--0-----2-2-0-||
D--0---1--|--0---2--0--|--0---1------|--0-----3-----||
A--2------|--2------2--|--2----------|--2-----------||
E--3---3--|--3---3--3--|--3---3------|--3-----3-----||
 31.       32.          33.           34.

C
  
    CM7          D7 D9 /F#      Bm7 Bm11   E7sus E7   
E------0--3---|--2--0--------|-------2---|---0---0---|
B------0--0---|--1--1--3--1--|---3---3---|---0---0---|
G---0--0--0---|--2--2--2--2--|---2---2---|---2---1---|
D---2--2--2---|--0--0--0--0--|---4---2---|---0---0---|
A---3--3--3---|--------------|---2---2---|---2---2---|
E-------------|--------2--2--|-----------|---0---0---|
 35.           36.            37.         38.          

    Am Am11       D7    D6/F#      GM7          G/F    
E---------0---|----------------|---------|-------3---|
B------1------|---3-----0------|---------|-------0---|
G---2--0------|---5--5--2--2---|----4----|---4---0---|
D---2--0------|---4--4--0--0---|----4----|---4---0---|
A---0--0------|---5--5---------|---------|-----------|
E-------------|---------2--2---|----3----|---3---1---|
 39.           40.              41.       42.       

    Cm11        F7 F13 F7       Dm7 Dm11   G7sus G7    
E---3--3--6---|--5--3--1-----|-------5---|---3---3---|
B---4--4------|--4--3--1--4--|---6---6---|---3---3---|
G---3--3------|--5--2--2--2--|---5---5---|---5---4---|
D---3--3------|--3--1--1--1--|---3---5---|---3---3---|
A---3--3------|--------3--3--|---5---5---|---5---5---|
E-------------|-----1--1--1--|-----------|---3---3---|
 43.           44.            45.         46.   

    Cm11        F7   F13 F7      Am7       D7
E---------3---|--1-----------|----------|-----------||
B---4--4------|--1--4--3--1--|----3-----|-----3-----||
G---3--3------|--2--2--2--2--|----5-----|-----5-----||
D---3--3------|--1--1--1--1--|----5-----|-----4-----||
A---3--3------|--3--3-----3--|----------|-----5-----||
E-------------|--1--1--1--1--|----5-----|-----------||
 47.           48.            49.        50.

About Us | Chord Progressions | F.A.Q. | Freebies | Guitar Chords | Guitar Lessons | Home Page | Links | Music News | Site Search | Songwriting | Standards | Store | Tablature | WebRings Copyright © 2005 - 2009 MoneyChords.com