MoneyChords
Resources

Chords & Lyrics

Guitar Riffs

MoneyChords
Store

Jingle-Bell Rock

Here are the fingerings that I use to play a chord-melody arrangement of Joe Beal and Jim Boothe's 1957 Christmas hit Jingle-Bell Rock. I play it in the key of G not the usual key of C. The song is played in 4/4 time with a light swing. I used the chord progression from "The Reader's Digest Merry Christmas Songbook."

   N/C
E--7-7-7--7-7-7-|-7-10-3--5-6-5-3---|--------------||
B--8-8-8--7-7-7-|-8--8-3--5-6-5-3-5-|-3------------||
G---------------|-----------------5-|-3-4----------||
D---------------|-------------------|--------------||
A---------------|-------------------|-----5-3-2-0--||
E---------------|-------------------|--------------||

    G                                        G#o7
E---3-3-3--2-2-2---|---0-2-0------|---0-2-0---------|
B---0------0-------|---0------0---|---0--------3----|
G---0------0-------|---0------0---|---0------4------|
D---0------0-------|---0------0---|---0------3------|
A---2--------------|----------2---|-----------------|
E---3------3-------|---3------3---|---3------4------|
 1.                 2.             3.

    Am7     D7      Am7    D7           Am7    D7
E---0-2-0-------|------------0------|---------------|
B---1-----------|-----0-1--3---3----|-----0-1--3----|
G---0-------5---|---2------5--------|---2------5----|
D---2-------4---|---2------4--------|---2------4----|
A---0-------5---|---0------5--------|---0------5----|
E---------------|-------------------|---------------|
 4.              5.                  6. 
 _______________________________  __________________
|1.                             ||2.
    Am7              D7#5            A7     D7    
E---0----0---0---|--------------||---0--0---2-------|
B---1-4--1-4-----|---5----------||---2------1--3----|
G---0----0-------|---3---3--3---||---0------2-------|
D---2----2-------|---4------4---||---2------0-------|
A---0----0-------|---5------5---||---0--------------|
E----------------|--------------||------------------|
 7.               8.              15.               
____________________
                    | 
     G                   C                C#o7
E----3----3--3------||---5--3--0--3---|---5--3--3---|
B----0----0---------||---5--1---------|---2--2------|
G----0----0---------||---5--0---------|---3--3------|
D----0----0---------||---5--2---------|---2--2------|
A----2--------------||---3--3---------|---0--0------|
E----3----3---------||----------------|-------------|
 16.                  17.              18.

    G/D               G              Em7 A7 
E---3--2---0------|-------3--3---|---5---3--0--3----|
B---3------3--3---|---0---0------|---3---2----------|
G---4------4------|---0---0------|---4---0----------|
D---5------5------|---0---0------|---2---2----------|
A---5------5------|---2----------|-------0----------|
E-----------------|---3---3------|------------------|
 19.               20.            21. 

    Em7 A7      D7     Am7              D7 
E---5---3---|----------0--0-0-0-0---|---2---0------||
B---3---2---|---3--3---1------------|---1------3---||
G---4---0---|---5------0------------|---2------5---||
D---2---2---|---4------2------------|---0------4---||
A-------0---|---5------0------------|----------3---||
E-----------|-----------------------|--------------||
 22.         23.                     24.
 
    G                                      Dm6/F      
E---3-3-3--2-2-2---|---0-2-0------|---0-2-0---------|
B---0------0-------|---0------0---|---0------0-3----|
G---0------0-------|---0------0---|---0------2------|
D---0------0-------|---0------0---|---0------0------|
A---2--------------|----------2---|-----------------|
E---3------3-------|---3------3---|---3------1------|
 25.                26.            27.
                                      ______________
                                     |1. 
 E7#5 E7   C                Cm6         A7   D7 
E--0--0-|--0-3--5-5-3-3--|------3-5--|--3-0--2-0----|
B--1--0-|--1----5--------|--4-4---4--|--2----1---3--|
G--1--1-|--0----5--------|--5--------|--0----2------|
D--0--0-|--2----5--------|--5-----5--|--2----0------|
A--2--2-|--3----3--------|--3-----3--|--0-----------|
E--0--0-|----------------|-----------|--------------|
 28.     29.              30.         31.
____________  ______________________________________
            ||2.                                    |
      G         A7    D7         A7   D7         G 
E-----3-----||--3--0--2--0----|--3-0--2-3--5--|--3--||
B-----0-----||--2-----1----3--|--2----1----3--|--3--||
G-----0-----||--0-----2-------|--0----2----5--|--0--||
D-----0-----||--2-----0-------|--2----0----4--|--0--||
A-----------||--0-------------|--0------------|--2--||
E-----3-----||----------------|---------------|--3--||
 32.

About Us | Chord Progressions | F.A.Q. | Freebies | Guitar Chords | Guitar Lessons | Home Page | Links | Music News | Site Search | Songwriting | Standards | Store | Tablature | WebRings Copyright © 2004 - 2007 MoneyChords.com