It Came Upon The Midnight Clear

MoneyChords
Resources

Chord-Melody #1

Chord-Melody #2 (pdf)

Lyrics

MoneyChords
Store

It Came Upon The Midnight Clear

Here are the fingerings that I use to play a chord-melody arrangement of Edmund Sears and Richard Willis' 1850 Christmas carol It Came Upon The Midnight Clear. I play it in the usual key of C. The song is played moderately in 3/4 waltz time. I used the chord progression from the "Fake Book Of The World's Favorite Songs."

           C  C+      F     F#o     C  F       C   
E-----||---0------|-------------|----------|----------|
B-----||---1--0---|---3--1------|----------|----------|
G--0--||---0--1---|---2-----2---|---0--2---|---0--0---|
D-----||---2--2---|---------1---|---2--3---|---2--2---|
A-----||---3--3---|---3---------|---3--3---|---3--3---|
E-----||----------|---1-----2---|------1---|----------|
        1.	   2.            3.         4.

    F               D7               G         G7
E---------------|-----------0---|---------|----------||
B-------0---1---|---1---3-------|----3----|----------||
G---2-----------|---2-----------|----0----|----0-----||
D---3-----------|---0-----------|----0----|----3-----||
A---3-----------|---------------|----2----|----2-----||
E---1-----------|---2-----------|----3----|----3-----||
 5.              6.              7.        8.
   
    C  C+       F       F#o     C   F        C   
E---0-------|---------------|-----------|-------------|
B---1---0---|---3---1-------|-----------|-------------|
G---0---1---|---2-------2---|---0---2---|----0---0----|
D---2---2---|-----------1---|---2---3---|----2---2----|
A---3---3---|---3-----------|---3---3---|----3---3----|
E-----------|---1-------2---|-------1---|-------------|
 9.          10.             11.         12.

    F   Dm      G7                 C        
E-----------|----------------|-----------|-----0-----||
B-----------|---0------------|-----1-----|-----1-----||
G---2---2---|---0---2---0----|-----0-----|-----0-----||
D---3---3---|---3------------|-----2-----|-----2-----||
A---3---5---|---2------------|-----3-----|-----3-----||
E---1-------|---3------------|-----------|-----------||
 13.         14.              15.         16.

    E7                          Am  E7       Am  C
E---0-------|---------------|-----------|--------0----|
B---0-------|---------------|-------0---|----1---1----|
G---1-------|-----------1---|---2---1---|----2---0----|
D---0---2---|---2---4-------|---2---0---|----2---2----|
A---2-------|---2-----------|---0---2---|----0---3----|
E---0-------|---0-----------|-------0---|-------------|
 17.         18.             19.         20.
  
    G               D7                G         G7
E---------------|----------------|---------|---------||
B---3---1---0---|-------0--------|---------|---------||
G---0-----------|---2-------2----|----0----|----0----||
D---0-----------|---0------------|----0----|----3----||
A---2-----------|----------------|----2----|----2----||
E---3-----------|---2------------|----3----|----3----||
 21.             22.              23.       24. 

    C   C+      F       F#o     C   F        C   
E---0-------|---------------|-----------|-------------|
B---1---0---|---3---1-------|-----------|-------------|
G---0---1---|---2-------2---|---0---2---|----0---0----|
D---2---2---|-----------1---|---2---3---|----2---2----|
A---3---3---|---3-----------|---3---3---|----3---3----|
E-----------|---1-------2---|-------1---|-------------|
 25.         26.             27.         28.

    F   Dm      G7                 C        
E-----------|----------------|-----------|-----------||
B-----------|---0------------|-----1-----|-----(1)---||
G---2---2---|---0---2---0----|-----0-----|-----(0)---||
D---3---3---|---3------------|-----2-----|-----(2)---||
A---3---5---|---2------------|-----3-----|-----(3)---||
E---1-------|---3------------|-----------|-----------||
 29.         30.              31.         32.
Alternate Fingerings

(1) Bars 1 through 4: 

   G7      C  E7      F     F#o   C/G Dm/F     C/E   
E-----||---0------|-------------|----------|----------|
B-----||---1--0---|---3--1------|----------|----------|
G--0--||---0--1---|---2-----2---|---0--2---|---0--0---|
D--3--||---2--0---|---------1---|---2--3---|---2------|
A--2--||---3--2---|---3---------|---3--3---|---3------|
E--3--||------0---|---1-----2---|---3--1---|---0------|
        1.	   2.            3.         4.

(2) Bars 1 through 4: 

           C  C+      F            C  G7/B     C   
E-----||---0------|-------------|----------|----------|
B-----||---1--0---|---3--1------|----------|----------|
G--0--||---0--1---|---2-----2---|---0--2---|---0--0---|
D-----||---2--2---|-------------|---2--3---|---2--2---|
A-----||---3--3---|---3---------|---3--2---|---3--3---|
E-----||----------|---1---------|----------|----------|
        1.	   2.            3.         4.

(3) Bars 5 through 8: 


    F  F#o C/G      D7/F#            F         G7
E---------------|-----------0---|---------|----------||
B-------0---1---|---1---3-------|----3----|----------||
G---2---2---0---|---2-----------|----2----|----0-----||
D---3---1---2---|---0-----------|---------|----3-----||
A---3-----------|---------------|----3----|----2-----||
E---1---2---3---|---2-----------|----1----|----3-----||
 5.              6.              7.        8.

(4) Bars 13 through 16: 

    F  F#o     G7  F/A G/B         C        
E-----------|----------------|-----------|-----0-----||
B-----------|---0------------|-----1-----|-----1-----||
G---2---2---|---0---2---0----|-----0-----|-----0-----||
D---3---1---|---3---3---0----|-----2-----|-----2-----||
A---3-------|---2---0---2----|-----3-----|-----3-----||
E---1---2---|---3------------|-----------|-----------||
 13.         14.              15.         16.

(5) Bars 17 through 20: 

   Bm7 E7/B     E7 D#o E7/D    Am/C E7/B    Am   C
E---0-------|---------------|-----------|--------0----|
B---3-------|---------------|-------0---|----1---1----|
G---2-------|-----------1---|---2---1---|----2---0----|
D---0---2---|---2---4---0---|---2---0---|----2---2----|
A---2---2---|---2-----------|---3---2---|----0---3----|
E-----------|---0-----------|-----------|-------------|
 17.         18.             19.         20.

(6) Bars 17 through 20: 

    E7                          Am  E       Am  Am7/G
E---0-------|---------------|-----------|--------0----|
B---0-------|---------------|-------0---|----1---1----|
G---1-------|-----------1---|---2---1---|----2---0----|
D---0---2---|---2---4-------|---2---2---|----2---2----|
A---2-------|---2-----------|---0---2---|----0--------|
E---0-------|---0-----------|-------0---|--------3----|
 17.         18.             19.         20.

(7) Bars 21 through 24:

    G/D             D7              G7sus      G7
E---------------|----------------|---------|---------||
B---3---1---0---|-------0--------|---------|---------||
G---4-----------|---2-------2----|----0----|----0----||
D---5-----------|---4------------|----3----|----3----||
A---5-----------|---5------------|----3----|----2----||
E---------------|----------------|----3----|----3----||
 21.             22.              23.       24. 

About Us | Chord Progressions | F.A.Q. | Freebies | Guitar Chords | Guitar Lessons | Home Page | Links | Music News | Site Search | Songwriting | Standards | Store | Tablature | WebRings Copyright © 2007 MoneyChords.com