MoneyChords
Resources

Chords & Lyrics

MoneyChords
Store

I'll Be Home For Christmas

Here are the fingerings that I use to play a chord-melody arrangement of Kim Gannon and Walter Kent's 1943 Christmas standard I'll Be Home For Christmas. I play it in the key of G not the usual key of C. The song is played moderately slow in a 4/4 tempo. I used the chord progression from "The Real Chord Changes and Substitutions - Christmas Favorites." This set of chord substitutions creates great sounding chromatic descending bass lines.

A

     G  C9     Bm7 Bbo   Am11 G#o Am11 D7 C#m7b5 C9
E----3--2---|---5---3---|--------|--------|----------|
B----0--3---|---3---2---|--3--3--|--3--3--|---5--3---|
G----0--3---|---2---0---|--5--4--|--5--5--|---4--3---|
D----0------|---4---2---|--5--3--|--5--4--|---5--2---|
A----2--3---|---2---1---|--0-----|-----5--|---4--3---|
E----3------|-----------|-----4--|--5-----|----------|
 1.          2.          3.       4.       5.

 Bm7b5 E7     Am      D9  Am Am9/G F#m7b5 B7b9 Em Em/D
E---1--0---|-------|------|--------|--------|--------|
B---3--0---|-------|------|-----0--|--3--1--|--0--3--|
G---2--1---|---2---|---2--|--2--2--|--2--2--|--0--4--|
D---0--0---|---2---|---4--|--2--2--|--2--1--|--2--5--|
A---2--2---|---0---|---5--|--0-----|--3--2--|--2--5--|
E------0---|-------|------|-----3--|--2-----|--0-----|
 6.         7.      8.     9.       10.      11.

C#m7b5 F#7    Em11 Ebo    Em9 A13b9  D9 G#o  Am9 D9
E---3--2---|---5---5---|---2---2--|--------|--0-----||
B---5--2---|---3---4---|---0--2--|--5--5--|--0--5--||
G---4--3---|---4---5---|---0---3--|--5--4--|--5--5--||
D------2---|---2---4---|---0---5--|--4--3--|--5--4--||
A---4--4---|-----------|---2---0--|--5-----|-----5--||
E------2---|-----------|---0------|-----4--|--5-----||
 12.        13.         14.        15.      16.

B

     G  C9     Bm7 Bbo   Am11 G#o Am11 D7 C#m7b5 C9
E----3--2---|---5---3---|--------|--------|----------|
B----0--3---|---3---2---|--3--3--|--3--3--|---5--3---|
G----0--3---|---2---0---|--5--4--|--5--5--|---4--3---|
D----0------|---4---2---|--5--3--|--5--4--|---5--2---|
A----2--3---|---2---1---|--0-----|-----5--|---4--3---|
E----3------|-----------|-----4--|--5-----|----------|
 17.         18.         19.      20.      21.

  Bm7b5 E13      Am      D9      C#m7b5      Cm6
E---1----0---|-------|-------|---5---3---|---5---3---|
B---3----2---|---1---|---1---|---5-------|---4-------|
G---2----1---|---2---|---2---|---4-------|-----------|
D---0----0---|---2---|---0---|---5-------|---5-------|
A---2----2---|---0---|-------|---4-------|---3-------|
E--------0---|-------|-------|-----------|-----------|
 22.          23.     24.     25.         26.

    Bm7b5 /F     E13          Eb13 D13   C#m7b5 D7b9
E------------|---0---0---|----5----7----|---3----5---|
B----3-------|---2-------|----6----5----|---5----4---|
G----2-------|---1-------|----6----5----|---4----5---|
D----3---3---|---0-------|----5----4----|--------4---|
A----2-------|---2-------|---------5----|---4--------|
E------------|---0-------|--------------|------------|
 27.          28.         29.            30. 
 _______________________  __________________________
|1. G  Bb13    Am7 D13  ||2. G       C9   G6/9      |
E---3---3---|---3---3---||---3---|---3---|--3--|----||
B---0---1---|---1---1---||---0---|---3---|--3--|----||
G---0---1---|---0---2---||---0---|---3---|--2--|----||
D---0---3---|---2---0---||---0---|---2---|--2--|----||
A---2---1---|---0-------||---2---|---3---|--2--|----||
E---3-------|-----------||---3---|-------|--3--|----||
 31.         32.          63.     64.     65.   66.
Alternate Fingerings

(1) Bars 1 through 5: 

    G69 GM7     Bbo       Bm7 Bb7 Am11 D7  Bm11 Bm7b5
E----3--2---|---5---3---|--------|--------|----------|
B----3--3---|---2---2---|--3--3--|--3--3--|---5--3---|
G----2--4---|---3---3---|--2--1--|--5--5--|---2--2---|
D----2--5---|---2---2---|--4--3--|--5--4--|---4--3---|
A-----------|-----------|--2--1--|--------|---2--2---|
E-----------|-----------|--------|--5--4--|----------|
 1.          2.          3.       4.       5.

(2) Bars 1 through 5: 

     G   Bm7     Bbo7       Am7      D7      G
E----3---2---|---5---3---|-------|-------|-----------|
B----3---3---|---2---2---|---3---|---3---|---5---3---|
G----4---2---|---3---3---|---5---|---5---|---4-------|
D----5---4---|---2---2---|---5---|---4---|-----------|
A----5---2---|-----------|---0---|---5---|---5-------|
E----3-------|-----------|-------|-------|---3-------|
 1.           2.          3.      4.      5.

About Us | Chord Progressions | F.A.Q. | Freebies | Guitar Chords | Guitar Lessons | Home Page | Links | Music News | Site Search | Songwriting | Standards | Store | Tablature | WebRings Copyright © 2004 - 2008 MoneyChords.com