MoneyChords
Resources

Chords & Lyrics

Notes on Series

Wikipedia

MoneyChords
Store

Here, There, and Everywhere

Here are the fingerings that I use to play a chord-melody arrangement of John Lennon and Paul McCartney's 1966 standard Here, There, and Everywhere from The Beatles' "Revolver" album. I play it in the original key of G. The song is played in a moderately slow 4/4 time. I try to be careful when making substitutions to pop songs so that the original harmonic intent is not destroyed.

The root notes of the repeated "GM7-Bm7-Am7-CM7" chord progression found in the first four bars of the "A" section form a "1-2-3-4" ascending diatonic bass line progression. These sequences are sometimes referred to as "Chord Streams" characterized by sliding stepwise movement from chord to chord climbing the harmonized scale.

Intro

    G      Bm7         Bb     Cm11        Am11 Ab7b5
E------------------|------------------|-------------||
B-------0--3-3-3---|-------3--6-4-3---|----3---3----||
G-----0----2-------|-----3----3-------|----0---5----||
D---0------0-------|---3------3-------|----2---4----||
A---2------2-------|---1------3-------|----0--------||
E---3--------------|------------------|--------4----||

A

   G  Am7    Bm7    CM7      GM7 Am11  Bm7    CM7
E---------|------5--3---0--|--------|---------0------|
B---------|--0-3----0-1----|--3--3--|--0-1-3--0------|
G--0---0--|--2------0------|--4--0--|--2------0-0-2--|
D--0---2--|--0------2------|--4--2--|--0------2------|
A--2---0--|--2------3------|-----0--|--2------3------|
E--3------|----------------|--3-----|----------------|
 1.        2.               3.       4.
                                 
   F#m11  B7    F#m11 F7b5    Em7   Am6     Am D/F#
E------------|-------------|--------2-0--|----------||
B--0-0-0--0--|--0-1-0-0----|------0-1----|----------||
G--2------2--|--2-----2-2--|--0-2--------|---2--2---||
D--2------1--|--2-----1----|--0-----2----|---2--0---||
A---------2--|-------------|--2-----0----|---0------||
E--2---------|--2-----1----|--0----------|------2---||
 5.           6.            7.            8.

A

   G  Am7    Bm7    CM7      GM7 Am11  Bm7    CM7
E---------|------5--3---0--|--------|---------0------|
B---------|--0-3----0-1----|--3--3--|--0-1-3--0------|
G--0---0--|--2------0------|--4--0--|--2------0-0-2--|
D--0---2--|--0------2------|--4--2--|--0------2------|
A--2---0--|--2------3------|-----0--|--2------3------|
E--3------|----------------|--3-----|----------------|
 9.        10.              11.      12.
                                 
   F#m11  B7   F#m11 F7b5   Em7   A13   Am F7sus F7
E-----------|------------|--------2-0-|-------------||
B--0-0-0--0-|--0-1-0-0---|------0-2---|----------1--||
G--2------2-|--2-----2-2-|--0-2---0---|--2-2--3--2--||
D--2------1-|--2-----1---|--0-----2---|--2----1--1--||
A---------2-|------------|--2-----0---|--0----3--3--||
E--2--------|--2-----1---|--0---------|-------1--1--||
 13.         14.          15.          16.

B

  BbM7  Gm7   Cm7    Am D7/F# Gm7     Cm7    Am  Ab7
E---1-------|---------------|-------|---------------||
B-3---3-----|--3-4---------1|-3-----|--3-4----------||
G-2-----5-3-|-5--3-5-2-2-3-2|-3-3---|-5--3-5-2-2-3-5||
D-3-----3---|-5--5---2-----0|-3---5-|-5--5---2-----4||
A-1-----5---|-3--3---0------|-5---5-|-3--3---0------||
E-------3---|--------------2|-3---3-|--------------4||
 17.         18.             19.     20.

A

   GM7 Am7   Bm7    CM7      GM7 Am11  Bm7    CM7
E---------|------5--3---0--|--------|---------0------|
B--3------|--0-3----0-1----|--3--3--|--0-1-3--0------|
G--4-4-0--|--2------0------|--4--0--|--2------0-0-2--|
D--4---2--|--0------2------|--4--2--|--0------2------|
A------0--|--2------3------|-----0--|--2------3------|
E--3------|----------------|--3-----|----------------|
 21.       22.              23.      24.
                                 
   F#m11  B7    F#m11 F7b5    Em7 Am6 Am7  Am D7sus
E------------|-------------|--------2-0--|----------||
B--0-0-0--0--|--0-1-0-0----|------0-1-1--|----------||
G--2------2--|--2-----2-2--|--0-2-----0--|--2---0-0-||
D--2------1--|--2-----1----|--0-----2-2--|--2--0----||
A---------2--|-------------|--2-----0-0--|--0--3----||
E--2---------|--2-----1----|--0----------|-----5----||
 25.          26.           27.           28.

Ending

  G  Am7     Bm7    C     G  Am7     Bm7  CM7    G6
E----------|------------|----------|----2--3--|--3--||
B-------0--|--3-0-------|-------0--|--3----0--|--5--||
G--0--0----|--2---2--0--|--0--0----|--2----0--|--4--||
D--0--2----|--0------2--|--0--2----|--4----2--|-----||
A--2--0----|--2------3--|--2--0----|--2----3--|--5--||
E--3-------|------------|--3-------|----------|--3--||
 29.        30.          31.        32.        33.

About Us | Chord Progressions | F.A.Q. | Freebies | Guitar Chords | Guitar Lessons | Home Page | Links | Music News | Site Search | Songwriting | Standards | Store | Tablature | WebRings Copyright © 2005 - 2009 MoneyChords.com