What Child Is This?

MoneyChords
Resources

Chord-Melody (Guitar Noise)

Sheet Music

Song History

Wikipedia

MoneyChords
Store

What Child Is This?

Here are the fingerings that I use to play a chord-melody arrangement of William Chatterton Dix's 1865 Christmas carol What Child Is This? written to the melody of Greensleeves, a traditional English ballad that dates back to the 1500s. I play it in the key of Am not the usual key of Em. The song is played as a 3/4 Jazz Waltz. I backcycled creating a Diatonic Circle Progression instead of the usual sheet music changes.

A
    
  E7sus  Am7 Am11  D9 D7 D9/F# GM7 G6    CF#m7b5Em7
E-------|--------|--0--2--0--|---------|-----------|
B-------|--1--3--|--1--1--1--|--3------|--------0--|
G---2---|--0--0--|--2--2--2--|--4---4--|--0--2--0--|
D---0---|--2--2--|--0--0--0--|--4---2--|--2--2--0--|
A---2---|--0--0--|-----------|---------|--3--3--2--|
E---0---|--------|--------2--|--3---3--|-----2--0--|
         1.       2.          3.        4.

    FM7 F6   Bm7b5Bbm7b5Bm7b5 E7sus E7      E  E7
E-----------|---------------|-----------|-----------|
B---1-------|---------------|---0-------|-------0---|
G---2---2---|---2---1---2---|---2---1---|-------1---|
D---2---0---|---3---2---3---|---0---0---|---2---0---|
A-----------|---2---1---2---|---2---2---|---2---2---|
E---1---1---|---------------|---0---0---|---0---0---|
 5.          6.              7.          8.
 
   Am7 EbM7   D9    Ab7#5    GM7 Db7b5 C F#m7b5 Em7 
E----------|--------------|----------|--------------|
B--1---3---|--5---7---5---|---3--0---|----------0---|
G--0---3---|--5-------5---|---4--0---|--0---2---0---|
D--2---5---|--4-------4---|---4--3---|--2---2---0---|
A--0---6---|--5-----------|------4---|--3---3---2---|
E----------|----------4---|---3------|------2---0---|
 9.         10.            11.        12. 

    FM7 F7b5 F7     E7               Am
E---------------|---------------|---------|--------||
B---1---0-------|---------------|---------|--------||
G---2---2---2---|---1-------1---|----2----|----2---||
D---2---1---1---|---0---4---0---|----2----|----2---||
A-----------3---|---2-------2---|----0----|----0---||
E---1---1---1---|---0-------0---|---------|--------||
 13.             14.             15.       16.

B

   Em7     Am7  D7 D9/F#    GM7 G6     C F#m7b5 Em7  
E---3---|---3---2---0---|-----------|---------------|
B---0---|---1---1---1---|---3-------|-----------0---|
G---0---|---0---2---2---|---4---4---|---0---2---0---|
D---0---|---2---0---0---|---4---2---|---2---2---0---|
A---2---|---0-----------|-----------|---3---3---2---|
E---0---|-----------2---|---3---3---|-------2---0---|
 17.     18.             19.         20.  

    FM7 F6  Bm7b5Bbm7b5Bm7b5  E7sus E7        E     
E-----------|---------------|-----------|-----------|
B---1-------|---------------|---0-------|-----------|
G---2---2---|---2---1---2---|---2---1---|-----------|
D---2---0---|---3---2---3---|---0---0---|-----2-----|
A-----------|---2---1---2---|---2---2---|-----2-----|
E---1---1---|---------------|---0---0---|-----0-----|
 21.         22.             23.         24.
   
   Em7     Am7 D7  D9/F#   GM7  G6     C F#m7b5 Em7
E---3---|---3---2---0---|-----------|---------------|
B---0---|---1---1---1---|---3-------|-----------0---|
G---0---|---0---2---2---|---4---4---|---0---2---0---|
D---0---|---2---0---0---|---4---2---|---2---2---0---|
A---2---|---0-----------|-----------|---3---3---2---|
E---0---|-----------2---|---3---3---|-------2---0---|
 25.     26.             27.         28.  

   FM7 F7b5 F7      E7      E7       Am        
E---------------|----------------|--------|--------||
B---1---0-------|----------------|--------|--------||
G---2---2---2---|---1-------1----|---2----|---2----||
D---2---1---1---|---0---4---0----|---2----|---2----||
A-----------3---|---2-------2----|---0----|---0----||
E---1---1---1---|---0-------0----|--------|--------||
 29.             30.              31.      32.

About Us | Chord Progressions | F.A.Q. | Freebies | Guitar Chords | Guitar Lessons | Home Page | Links | Music News | Site Search | Songwriting | Standards | Store | Tablature | WebRings Copyright © 2007 - 2009 MoneyChords.com