Good King Wenceslas

MoneyChords
Resources

Lyrics

Wikipedia

MoneyChords
Store

Good King Wenceslas

Here are the fingerings that I use to play a chord-melody arrangement of John M. Neale's 1853 Christmas carol Good King Wenceslas. I play it in the key of C. The song is played firmly in 4/4 time.

   C C/B Am7G7   FM7 F6 Em7   Dm7    G9      C6   C
E--------------|------------|--------------|---------|
B--1--1--1--3--|--1--1------|-----------0--|--1---1--|
G--0--0--0--0--|--2--2---0--|--2--0--2--2--|--2---0--|
D--2--2--2--3--|--2--0---0--|--3--3--3--3--|--2---2--|
A--3--2--0--2--|---------2--|--5--5--------|--3---3--|
E-----------3--|--1--1---0--|--------3--3--|---------|
 1.             2.           3.             4.

   C C/B Am7G7   FM7 F6 Em7    Dm7   G9      C6   C
E--------------|------------|--------------|---------|
B--1--1--1--3--|--1--1------|-----------0--|--1---1--|
G--0--0--0--0--|--2--2---0--|--2--0--2--2--|--2---0--|
D--2--2--2--3--|--2--0---0--|--3--3--3--3--|--2---2--|
A--3--2--0--2--|---------2--|--5--5--------|--3---3--|
E-----------3--|--1--1---0--|--------3--3--|---------|
 5.             6.           7.             8.

  CM7Dm7Bm7b5Bb7 Am7 Ab7b5C/G   FM7 Dm7 G7   C6  C
E--3--1---------|--0----------|------------|---------|
B--0--1---5--3--|--1---3---1--|---------0--|--1---1--|
G--0--2---2--1--|--0---5---0--|--2-0-2--0--|--2---0--|
D--2--0---3--3--|--2---4---2--|--2---3--3--|--2---2--|
A--3------2--1--|--0----------|------5--2--|--3---3--|
E---------------|------4---3--|--1------3--|---------|
 9.              10.           11.          12. 

   CC/B Dm7E7  Am7 C/G D/F#   F     G13 G7    Am7 Dm7
E-------------|------------|--3--1---------|------1--|
B----------0--|--1--1---3--|--1--1---5--3--|--1---1--|
G--0-0--2--1--|--0--0---2--|--2--2---4--4--|--0---2--|
D--2-2--3--0--|--2--2---0--|-----3---3--3--|--2---0--|
A--3-2--5--2--|--0---------|--3--3------5--|--0------|
E----------0--|-----3---2--|--1--1---3--3--|---------|
 13.           14.          15.             16. 

             C6                  (  Dm7  G7  )
E--------------------------|------------------------||
B------------1-------------|------------------------||
G------------2-------------|------------------------||
D------------2-------------|------------------------||
A------------3-------------|------------------------||
E--------------------------|------------------------||
 17.                        18.
Alternate Fingerings

(1) Bars 1 through 3:  

   C        Am        C          G    F          G7
E------------------|----------------|---------------|
B--1----1---1---3--|--1----1--------|-------------0-|
G--0--------2------|--0----------0--|-2--0---2----0-|
D--2--------2------|--2----------0--|-3------3----3-|
A--3--------0------|--3----------2--|-3------3----2-|
E------------------|-------------3--|-1------1----3-|
 1.                 2.               3.

(2) Bars 1 through 3:  

   C        Am  G     C    F     G    F  C   F   G7
E------------------|----------------|---------------|
B--1----1---1---3--|--1----1--------|-------------0-|
G--0--------2---0--|--0----2-----0--|-2--0---2----0-|
D--2--------2---0--|--2----3-----0--|-3--2---3----3-|
A--3--------0---2--|--3----3-----2--|-3--3---3----2-|
E---------------3--|-------1-----3--|-1------1----3-|
 1.                 2.               3.

(3) Bars 1 through 3: (Diatonic & Peal bass line)

  C   C/B  Am  G/B   C   F/C    C   F/C C   F   G7
E------------------|----------------|---------------|
B--1----1---1---3--|--1----1--------|-------------0-|
G--0----0---2---0--|--0----2-----0--|-2--0---2----0-|
D--2----2---2---0--|--2----3-----2--|-3--2---3----3-|
A--3----2---0---2--|--3----3-----3--|-3--3---3----2-|
E------------------|----------------|--------1----3-|
 1.                 2.               3.

About Us | Chord Progressions | F.A.Q. | Freebies | Guitar Chords | Guitar Lessons | Home Page | Links | Music News | Site Search | Songwriting | Standards | Store | Tablature | WebRings Copyright © 2006 - 2009 MoneyChords.com