MoneyChords
Guitar Tips Free Newsletter

"Every Breath" By Sting
(please note - this is only my interpretation of the song)

This song was requested a number of times from subscribers all over the world, so I decided to make it available to you in this weeks edition.

As usual, I've broken it down into bite size pieces and added the final piece down the bottom!

Enjoy this song and be awesome!

RHYTHM

First Part

E------------------------------|
B---------------0--------------|
G---------2--------2-------2---|
D------0-----0--------0--------|
A------------------------------|
E---3--------------------------|

Repeat this 2 times...

Second Part

E------------------------------|
B------------------------------|
G--------------0---------------|
D---------4--------4-------4---|
A------2-----2---------2-------|
E--0---------------------------|

Repeat this 2 times...

Third Part

E------------------------------|
B---------3------1-------------|
G--------------------0-------0-|
D-----0------0-----------0-----|
A--3---------------------------|
E------------------------------|

Fourth Part

E-----------0--------------------|
B-------------------3------------|
G-------2-------2-------2-------2|
D---0-----------------------0----|
A--------------------------------|
E--------------------------------|

Fifth Part

(Same as First Part but play once only and add a 3 on the bass E String)


Finally...

After you have mastered each part - your rhythm should sound something like this - play along with me...

 

CHORUS

First Part

This is actually a power chord. Just hold this chord and hit the strings as heard in the audio

E----------|
B----------|
G----5-----|
D----5-----|
A----3-----|
E----------|


Second Part

This is also a power chord

E----------|
B----------|
G----------|
D----5-----|
A----5-----|
E----3-----|

Third Part

This is also a power chord

E----------|
B----------|
G----------|
D----7-----|
A----7-----|
E----5-----|

Fourth Part

E----------|
B----------|
G----7-----|
D----7-----|
A----5-----|
E----------|

Finally...

After you have mastered each part - your rhythm should sound something like this - play along with me...

 

LEAD for the Rhythm

E------------------|-------------------|
B--0--1--0---------|-0-0--1--0---------|
G------------2---0-|-------------------|
D------------------|------------0-0-2-2|
A------------------|-------------------|
E------------------|-------------------|

E------------------|------------------|
B-------0-1-0------|-------1-0--------|
G--------------0---|--0-0-------2-----|
D--2-2-------------|------------------|
A------------------|------------------|
E------------------|------------------|

E----------------------------|
B----------------------------|
G-2--0--2(bend) -------------|
D-----------------0---2-2-2--|
A----------------------------|
E----------------------------|

 

LEAD for the Chorus

E----------------------------|
B-------------3--3---5(hold)-|
G-------0-2-4----------------|
D--0-2-----------------------|
A----------------------------|
E----------------------------|


E-----------------------------|
B--5--5--5---3----------------|
G--------------2---4-(hold)---|
D-----------------------------|
A-----------------------------|
E-----------------------------|

E--3-3-3-3-3-3-3-3-0----------|
B---------------------3---5---|
G-----------------------------|
D-----------------------------|
A-----------------------------|
E-----------------------------|

E--5-5-5--2-0-----------------|
B-------------3---5---3-------|
G-----------------------------|
D-----------------------------|
A-----------------------------|
E-----------------------------|

After this riff - PAUSE....

E--3--------------------------|
B------3-0-0------------------|
G-------------2--0--2(slide)-4|
D-----------------------------|
A-----------------------------|
E-----------------------------|

Go back to beginning i.e.

E-----------------------------|
B--5--5--5---3----------------|
G--------------2---4-(hold)---|
D-----------------------------|
A-----------------------------|
E-----------------------------|

continue the same cycle from beginning...

Final Product

Finally - once you can play the lead, chorus and rhythm - here is what your playing should sound like...

Lyrics for "Every Breath You take"

Every breath you take
and every move you make
Every bond you break every step you take I'll be watching you

Every single day
and every word you say
Every game you play every night you stay I'll be watching you

Oh can't you see you
belong to me
how my poor heart aches
with every step you take

Every move you make
every vow you break
Every smile you fake every claim you stake I'll be watching you

Since you've gone I've been lost without a trace
I dream at night I can only see your face
I look around but it's you I can't replace
I feel so cold and I long for your embrace
I keep crying baby baby please





GUITAR TIPS

Learn how to play the electric / acoustic guitar in 30 days and bypass traditional guitar lessons.

With over 70 JAM PACKED guitar lessons you'll learn in the comfort of your own home at your own speed at a time that suits you best. Access the site anytime, any where, no matter what age group you are or which country you live in!

Click here to learn more



GUITAR SONGS

Learn how to play popular songs on the guitar in an easy step-by-step format online!

With our new site you'll learn how to play popular songs of today's music using easy to follow step-by-step tabs, audio files, amp settings, lyrics, video clips and much more. Even submit your own songs or request it and we'll try our best to get it recorded for you!

Click here to learn more

 




Guitar Tips Pty Ltd
17 / 397 Hellawell Road
Sunnybank Hills, Brisbane
Queensland 4109
AUSTRALIA
Phone: + 61-7-3272 2332
Fax: + 61-7-3272 2278
Privacy Policy
Copyright
© 2001-2004
All Rights Reserved




About Us | Chord Progressions | F.A.Q. | Freebies | Guitar Chords | Guitar Lessons | Home Page | Links | Music News | Site Search | Songwriting | Standards | Store | Tablature | WebRings © 2005 MoneyChords.com