MoneyChords
Resources

Chord Substitutions (JustJazz)

Lyrics

Wikipedia

MoneyChords
Store

Santa Claus Is Comin' To Town

Here are the fingerings that I use to play a chord-melody arrangement of J. Fred Coots and Haven Gillespie's 1934 Christmas favorite Santa Claus Is Comin' To Town. I play it in the key of G not the original key of C. The song is played brightly in 4/4 time.

A

  D+    GM7   G7      CM7   F13  GM7   G7    CM7   F7
E---||-------------|--0-2-3-3--|-----------|-0-------|
B-3-||------3-3-3--|--0-----3--|-----3-3-3-|-0-3-1-1-|
G-3-||--4-5---4----|--0-----2--|-4-5---4---|-0-----2-|
D-4-||--4-----3----|--2-----1--|-4-----3---|-2-----1-|
A-5-||--------5----|--3--------|-------5---|-3-----3-|
E---||--3-----3----|--------1--|-3-----3---|-------1-|
      1.            2.          3.          4.

    GM7   Em7       Am7 Ab7 D      G6  Em7   Am7 D7#5 
E---------------|---------------|---------|---------||
B-----3-----0---|---------------|---------|------3--||
G---4-----0-----|---2---5-------|--0---0--|--0---3--||
D---4-----0-----|---2---4---4---|--2---0--|--2---4--||
A---------2-----|---0-------5---|--2---2--|--0---3--||
E---3-----0-----|-------4-------|--3---0--|---------||
 5.              6.              7.        8.

A 

   GM7   G#o     Am7   Bb13  Bm7   Bb7     Am7    Ab7
E-------------|--0-2-3-3--|-------------|--0---------|
B------3-3-3--|--1-----1--|--0-1-3-3-3--|--1-3-1-----|
G--4-5---4----|--0-----1--|--2-----1----|--0------5--|
D--4-----3----|--2--------|--0-----3----|--2------4--|
A-------------|--0-----1--|--2-----1----|--0---------|
E--3-----4----|-----------|-------------|---------4--|
 9.            10.         11.           12.

    Bm7   Em7       Am  Ab7 D      G6  C     G6 A7b9  
E---------------|---------------|---------|------3--||
B---0-3-----0---|---------------|---------|------2--||
G---2-----0-----|---2---5-------|--0---0--|--0---3--||
D---0-----0-----|---2---4---4---|--2---2--|--2---2--||
A---2-----2-----|---0-------5---|--2---3--|--2---0--||
E---------0-----|-------4-------|--3------|--3------||
 13.             14.             15.       16.

B

  Dm7 G7 Gb7G7   CM7  A7b9   Dm7 G7 Gb7G7    CM7 Am7
E--5--3--2--3-|--0-0--3---|---5--3--2--3--|---0--5---|
B--6--3--2--3-|--0----2---|---6--3--2--3--|---0--5---|
G--5--4--3--4-|--0----3---|---5--4--3--4--|---0--5---|
D--7--3--2--3-|--2----2---|---7--3--2--3--|---2--5---|
A--5--5--4--5-|--3----0---|---5--5--4--5--|---3------|
E-----3--2--3-|-----------|------3--2--3--|------5---|
 17.           18.         19.             20.

  Em7 A7 Ab7A7   F#m7 B7b9   Em1 Em7A13A7 Am11 D7#5
E--7--5--4--5-|--2-2--2-2-3--|-5--3--2-0-|----------||
B--8--5--4--5-|--2-2--1-1-1--|-3--3--2-2-|--3--3-3--||
G--7--6--5--6-|--2-2--2-2-2--|-4--0--0-0-|--0--3----||
D--9--5--4--5-|--2-2--1-1-1--|-2--2--2-2-|--2--4----||
A--7--7--6--7-|--4-4---------|-------0-0-|--0--5----||
E-----5--4--5-|--2-2---------|-----------|----------||
 21.           22.            23.         24.

A 

   GM7 Ab7b5G7   CM7   F13  GM7Ab7b5G7susG7  CM7  F7
E-------------|--0-2-3-3--|----------------|-0-------|
B------3-3--3-|--0-----3--|------3--3---3--|-0-3-1-1-|
G--4-5---5--4-|--0-----2--|--4-5-5--5---4--|-0-----2-|
D--4-----4--3-|--2-----1--|--4---4--3---3--|-2-----1-|
A-----------5-|--3--------|---------5---5--|-3-----3-|
E--3-----4--3-|--------1--|--3---4--3---3--|---------|
 25.           26.         27.              28.

    GM7   Em7     Am7 Ab7 D7b9    G6  (Em7   Am7 D7)
E---------------|---------5---|----3-------|--------||
B-----3-----0---|---------4---|----5-------|--------||
G---4-----0-----|---2--5--5---|----4-------|--------||
D---4-----0-----|---2--4--4---|------------|--------||
A---------2-----|---0---------|----5-------|--------||
E---3-----0-----|------4------|----3-------|--------||
 29.             30.           31.          32.

About Us | Chord Progressions | F.A.Q. | Freebies | Guitar Chords | Guitar Lessons | Home Page | Links | Music News | Site Search | Songwriting | Standards | Store | Tablature | WebRings Copyright © 2005 - 2009 MoneyChords.com