MoneyChords
Resources

Lyrics

SongTrellis

Tab

MoneyChords
Store

Besame Mucho

Here are the fingerings that I use to play a chord-melody arrangement of Consuelo Velazquez's 1941 standard Besame Mucho. I play it in the key of Am/A not the original key of Cm/C. The song is played in a 4/4 Tango or Slow Latin tempo.

A

    Am                          Dm7 Dm7/A        
E-------------|-------------|---0--------|-----------|
B-------------|------0--1---|---3----3---|----(3)----|
G---2-2--2---|---2-----2---|---2----2---|----(2)----|
D---2-----2---|---2-----2---|---3----3---|----(3)----|
A---0-----0---|---0-----0---|--------0---|----(0)----|
E-------------|-------------|------------|-----------|
 1.            2.            3.           4.      

   Dm7/A A7b9      Bm7b5 E7b9       Am6       E7b9
E--------0-0-0--|--1-1-1-4-5-7--|----0----|----0----||
B--3-3-3-3------|--3-----3---6--|----1----|----1----||
G--2-----2------|--2-----4---7--|----2----|----0----||
D--3-----3------|--------3---6--|----4----|----3----||
A--0-----0------|--2------------|----0----|----2----||
E---------------|---------------|---------|----0----||
 5.              6.              7.        8.

B

     Em7b5       A7b9         Dm7 Dm7/A              
E-----5-----|----3---1----|----0--------|------------|
B-----3-----|----2--------|----3---3----|----(3)-----|
G-----3-----|----3--------|----2---2----|----(2)-----|
D-----2-----|----2--------|----3---3----|----(3)-----|
A-----------|----0--------|--------0----|----(0)-----|
E-----------|-------------|-------------|------------|
 9.        10.        11.        12.       
 
   Am6   F#m7b5    B7b9   E7b9       Am6
E--5-----0------|----------------|--------|---------||
B--5-5---1-1----|--1-0----0------|--------|---------||
G--5---5-2---2--|--2---2--1-2-1--|----2---|---(2)---||
D--4-----2------|--1------3------|----4---|---(4)---||
A--0------------|--2------2------|----0---|---(0)---||
E--------2------|---------0------|--------|---------||
 13.             14.              15.      16.

C

   Dm7/A            Am         Bm7b5 E7b9     Am6 A7b9
E---------------|-------------|-------------|--0-0--|
B--3-3-3-3-1-0--|-1-1-1-1-0---|-0-0-0-0-1-3-|--1--2--|
G--2-----2------|-2-----2---2-|-2---1-------|--2--3--|
D--3-----3------|-2-----2-----|-3---0-------|--4--2--|
A--0-----0------|-0-----0-----|-2---2-------|--0--0--|
E---------------|-------------|-----0-------|--------|
 17.             18.           19.           20.

                                       (F7b9)
   Dm7/A            Am            B7    F7      E7b9 
E----------------|--------------|-------------|-----||
B--3-3-3--3-1-0--|--1-1-1-1-0---|-0-0-0-1-3-1-|--0--||
G--2------2------|--2-----2---2-|-2-----2-----|--1--||
D--3------3------|--2-----2-----|-1-----------|--3--||
A--0------0------|--0-----0-----|-2-----3-----|--2--||
E----------------|--------------|-------1-----|--0--||
 21.              22.            23.           24.
 
A

    Am                          Dm7 Dm7/A        
E-------------|-------------|---0--------|-----------|
B-------------|------0--1---|---3----3---|----(3)----|
G---2-2--2---|---2-----2---|---2----2---|----(2)----|
D---2-----2---|---2-----2---|---3----3---|----(3)----|
A---0-----0---|---0-----0---|--------0---|----(0)----|
E-------------|-------------|------------|-----------|
 25.           26.           27.          28.      

   Dm7/A A7b9     Bm7b5  E7b9       Am6
E--------0-0-0--|--1-1-1-4-5-7--|----0----|---(0)---||
B--3-3-3-2------|--3-----3---6--|----1----|---(1)---||
G--2-----3------|--2-----4---7--|----2----|---(2)---||
D--3-----2------|--------3---6--|----4----|---(4)---||
A--0-----0------|--2------------|----0----|---(0)---||
E---------------|---------------|---------|---------||
 29.             30.             31.       32.

B

     Em7b5       A7b9         Dm7 Dm7/A             
E-----5-----|----3---1----|----0--------|------------|
B-----3-----|----2--------|----3---3----|----(3)-----|
G-----3-----|----3--------|----2---2----|----(2)-----|
D-----2-----|----2--------|----3---3----|----(3)-----|
A-----------|----0--------|--------0----|----(0)-----|
E-----------|-------------|-------------|------------|
 33.         34.           34.           36.       
 
   Am6   F#m7b5    B7b9   E7b9       Am6
E--5-----0------|----------------|--------|---------||
B--5-5---1-1----|--1-0----0------|--------|---------||
G--5---5-2---2--|--2---2--1-2-1--|----2---|---(2)---||
D--4-----2------|--1------3------|----4---|---(4)---||
A--0------------|--2------2------|----0---|---(0)---||
E--------2------|---------0------|--------|---------||
 37.             38.              39.      40.


About Us | Chord Progressions | F.A.Q. | Freebies | Guitar Chords | Guitar Lessons | Home Page | Links | Music News | Site Search | Songwriting | Standards | Store | Tablature | WebRings Copyright © 2005 - 2010 MoneyChords.com