HACK_YOUR_FACE
High And Tight
Drop A Tuning

*  = Palm Mute
/  = Slide
b  = Bend
~  = Vibrato/Ring out
h  = Hammer on
p  = Pull off
t  = Tap
.  = Staccato
=  = Tremolo pick
() = Carry over
x  = dead note or repeat

*bass plays lowest note unless otherwise noted*



BPM = 134


     Intro 1x
B |------------------------------------------------------------------
Gb|--------------------------------------------12---9---7/9---12/15--
D |--------------------------------------------x----x---x-----x------
A |--5-----7---------9-----12------5-----7---0-9--0-7-0-5/7-0-9-/12--
E |--7-----9---------9-----9-------7-----9---------------------------
A |------x---------------x-------------x-----------------------------
         *               *             *     *    *   *     *

     1x
     Guitar Left
B |---------------------------------------------------------------------------------------------------------------------------------------------
Gb|----------------------------------------------------------------------------------------------------------------------------------------7----
D |--------------------------------------------------12-11-9---9/7-7---------------------------------------------------------------4h5p4-7---7--
A |--------------------------------------------------x--x--x---x---x---------------------------------------------------------4h5h7--------------
E |--0-575-0-7-5-0-2-0-3-0-0-0-0-0-0-0-575-0-7-5-0-0-10-9--7-0-7/5-5---0-575---7-5-0-2---3-0---0-0-0-0-0-575---7-5-0-0-4h5h7--------------------
A |--0-575-0-7-5-0-2-0-3-0-0-0-0-0-0-0-575-0-7-5-0-0---------0---------0-575---7-5-0-2---3-0---0-0-0-0-0-575---7-5-0-0--------------------------
  |  *     *         *     * * * * * *     *     * *         *         *       * * * *   * *   * * * * * ***   * * * *     
  |
  |  Guitar Right (bass follows guitar right)
B |-------------------------------------------------------------------------------------------------------------------------------------------
Gb|--------------------------------------------------------------------------------------------------------------------------------------7----
D |------------------------------------------------------------------------------------------------------------------------------4h5p4-7---7--
A |------------------------------------------------------------------------------------------------------------------------4h5h7--------------
E |--0-575---7-5-0-2---3-0---0-0-0-0-0-575---7-5-0-0-5-4-2-0-2p0-0---0-575---7-5-0-2---3-0---0-0-0-0-0-575---7-5-0-0-4h5h7--------------------
A |--0-575---7-5-0-2---3-0---0-0-0-0-0-575---7-5-0-0-5-4-2-0-2p0-0---0-575---7-5-0-2---3-0---0-0-0-0-0-575---7-5-0-0--------------------------
     * ***   * * * *   * *   * * * * * ***   * * * *       *         * ***   * * * *   * *   * * * * * ***   * * * *     

     1x
     Guitar Left
B |---------------------------------------------------------------------------------------------------------------------------------------------------------
Gb|-----------------------------------------------------------------------------------------------------------------------------------------------------7---
D |--------------------------------------------------12-11-9---9/7-7------------------------/10-------------------------------------------------4h5p4-7--7--
A |--------------------------------------------------x--x--x---x---x----------7--/7-5-----------7---7p0-9p0-12~~~-------7--/7-5-----------4h5h7-------------
E |--0-575-0-7-5-0-2-0-3-0-0-0-0-0-0-0-575-0-7-5-0-0-10-9--7-0-7/5-5-----0h5h7--------5-7--------------------------0h5h7--------5-7-4h5h7-------------------
A |--0-575-0-7-5-0-2-0-3-0-0-0-0-0-0-0-575-0-7-5-0-0---------0---------0--------0---------0-------0--------------0--------0---------------------------------
  |  *     *         *     * * * * * *           * *         *         *        *         *       *              *        *
  |
  |  Guitar Right (bass follows guitar right)
B |---------------------------------------------------------------------------------------------------------------------------------------------------------
Gb|-----------------------------------------------------------------------------------------------------------------------------------------------------7---
D |--------------------------------------------------12-11-9---9/7-7----------------------------------------------------------------------------4h5p4-7--7--
A |--------------------------------------------------x--x--x---x---x---7-----------------------------------------9------------------------4h5h7-------------
E |--0-575-0-7-5-0-2-0-3-0-0-0-0-0-0-0-575-0-7-5-0-0-10-9--7-0-7/5-5---5-----------------------------------------7------------------4h5h7-------------------
A |--0-575-0-7-5-0-2-0-3-0-0-0-0-0-0-0-575-0-7-5-0-0---------0---------5-----------------------------------------7------------------------------------------
     *     *         *     * * * * * *           * *         *   

     2x
B |----------------------------------------------------------------------------------
Gb|----------------------------------------------------------------------------------
D |--------------------------5p0-3p0-------7-----------------------------------------
A |--------------2p0---3p0------7---5p0-5h7-7-5h7p5----------------------------------
E |--5p0---3p0------3-----5------------------------8--5-1-0---5-1-0-1---------5-1-0--
A |-----7-----5---------------------------------------5-1-0---5-1-0-1---------5-1-0--
                                                      * * *   * * * *         * * *

     1x
B |-------------------------------------------------------------------------------------------------------------------
Gb|--6---------8---------10--------11--------------------------------------6---------11--------10---------------------
D |--5---------7---------9---------10--------------------------------------5---------10--------9----------------------
A |--3------xx-5------xx-7------xx-8---------------------------------------3------xx-8------xx-7------xx--------------
E |--3------xx-5------xx-7------xx-8-------5-1-0---5-1-0-1---------5-1-0---3------xx-8------xx-7------xx-pick-scrape--
A |--3------xx-5------xx-7------xx-8-------5-1-0---5-1-0-1---------5-1-0---3------xx-8------xx-7------xx-12\----------
                                           * * *   * * * *         * * * 

     1x
     Guitar Left
B |---------------------------------------------------------------------------------------------------------------------------
Gb|---------------------------------------------------------------------------------------------------------------------------
D |---------------------------------------------------------------------------------------------------------------------------
A |----------------------------------------------------------------------.-----------------------------------------3-------1--
E |--5-1-0---5-1-0-1-3-1-0---5-1-0---5-1-0---5-1-0-1-3-1-0---5-1-0---5-1-0-------------------5-1-0---0-0---5-1-0-1-3-------1--
A |--5-1-0---5-1-0-1-3-1-0---5-1-0---5-1-0---5-1-0-1-3-1-0---5-1-0---5-1-0-------------------5-1-0---0-0---5-1-0-1-3-------1--
  |    * *     * * * * * *     * *     * *     * * * * * *     * *     * *                   * * *         * * * *
  |
  |  Guitar Right
B |---------------------------------------------------------------------------------------------------------------------------
Gb|---------------------------------------------------------------------------------------------------------------------------
D |---------------------------------------------------------------------------------------------------------------------------
A |----------------------------------------------------------------------.-----------------------------------------3-------1--
E |--5-1-0---5-1-0-1-3-1-0---5-1-0---5-1-0---5-1-0-1-3-1-0---5-1-0---5-1-0-------------0-0---5-1-0---------5-1-0-1-3-------1--
A |--5-1-0---5-1-0-1-3-1-0---5-1-0---5-1-0---5-1-0-1-3-1-0---5-1-0---5-1-0-------------0-0---5-1-0---------5-1-0-1-3-------1--
  |    * *     * * * * * *     * *     * *     * * * * * *     * *     * *             * *   * * *         * * * *
  |
  |  Bass
D |---------------------------------------------------------------------------------------------------------------------------
A |---------------------------------------------------------------------------------------------------------------------------
E |---------------------------------------------------------------------------------------------------------------------------
A |--5-1-0---5-1-0-1-3-1-0---5-1-0---5-1-0---5-1-0-1-3-1-0---5-1-0---5-1-0-0-5-1-0-1-0-0-0-0-5-1-0-0-5-1-0-5-1-0-1-3-------1--

     1x
     Chorus
     Guitar Left (x = repeat chord)
B |-----------------------------------------------------------------------------------------------------------------------------------------------------------
Gb|------10--------------11-----------------------------------------------------------------------------------------------------------------------------------
D |------9---------------10------------------------------------7-----4---------------------------------------------------------------------7-----4------------
A |--0---7xxxx---xxxx0---8xxxx---xxxx--------------------------x-----x---------------------------------------------------------------------x-----x---------1--
E |--0---------------0--------------------------------5-7-5----5-----2-----2-3-2-000-000-00000-0-000-000-00000-0------------------5-7-5----5-----2-----2-5-1--
A |--0---------------0--------------------------------5-7-5-00----00----00-2-3-2-000-000-00000-0-000-000-00000-0------------------5-7-5-00----00----00-2-5----
  |                                                         **    **    **       *** *** ***** * *** *** ***** *                        **    **    **
  |   
  |  Guitar Right (x = repeat chord)
B |-----------------------------------------------------------------------------------------------------------------------------------------------------------
Gb|------10--------------11-----------------------------------------------------------------------------------------------------------------------------------
D |------9---------------10-------------14-----12-------------------------------------------------------------------14-----12---------------------------------
A |--0---7xxxx---xxxx0---8xxxx---xxxx---x------x--------------------------------------------------------------------x------x-------------------------------1--
E |--0---------------0---------------00-12--00-10--00-5-7-5----------------2-3-2-000-000-00000-0-000-000-00000-0-00-12--00-10--00-5-7-5----------------2-5-1--
A |--0---------------0---------------00-----00-----00-5-7-5----------------2-3-2-000-000-00000-0-000-000-00000-0-00-----00-----00-5-7-5----------------2-5----
  |                                  **     **     **                            *** *** ***** * *** *** ***** * **     **     **          
  |       
  |  Bass
D |-----------------------------------------------------------------------------------------------------------------------------------------------------------
A |-----------------------------------------------------------------------------------------------------------------------------------------------------------
E |--------------------------------------------------------------------------------------------------------------------------------------------------------1--
A |--0---77777---77770---88888---8888-----------------5-7-5----------------2-3-2-000-000-00000-0-000-000-00000-0------------------5-7-5----------------2-5----

     1x
     Guitar Left (x = repeat chord)                                                                               ring out~~~~~~~~~~~~~~~~~~~~~~~~~~~~~~~~~~~~~~~~~~~~~    
B |-----------------------------------------------------------------------------------------------------------------------------------------------------------------------------
Gb|------10------13-------12----------------------------------------------------------------------------------------------------------------------------------------------------
D |------9-------12-------11------------------------------------7-----4---------------------------------------------5-----5-----5---7-----7-----7---3-----3-----3---------------
A |--0---7xxxx---10xxx0---9xxxx---xxxx--------------------------x-----x------------------------------------------------------------------------------------------------4--3--1--
E |--0----------------0--------------------------------5-7-5----5-----2-----2-3-2-000-000-00000-0-000-000-00000-0-3-----3-----3---5-----5-----5---1-----1-----1--------4--3--1--
A |--0----------------0--------------------------------5-7-5-00----00----00-2-3-2-000-000-00000-0-000-000-00000-0-------------------------------------------------0----4--3--1--
  |                                                          **    **    **       *** *** ***** * *** *** ***** *
  |
  |  Guitar Right (x = repeat chord)                                                                              ring out~~~~~~~~~~~~~~~~~~~~~~~~~~~~~~~~~~~~~~~~~~~~~   
B |-----------------------------------------------------------------------------------------------------------------------------------------------------------------------------
Gb|------10------13-------12----------------------------------------------------------------------------------------------------------------------------------------------------
D |------9-------12-------11-------------14-----12---------------------------------------------------------------------------------------------------------------------------.--
A |--0---7xxxx---10xxx0---9xxxx---xxxx---x------x-------------------------------------------------------------------5-----5-----5---1-----1-----1---3-----3-----3------4--3--1--
E |--0----------------0---------------00-12--00-10--00-5-7-5----------------2-3-2-000-000-00000-0-000-000-00000-0------------------------------------------------------4--3--1--
A |--0----------------0---------------00-----00-----00-5-7-5----------------2-3-2-000-000-00000-0-000-000-00000-0-5-----5-----5---1-----1-----1---3-----3-----3---0----4--3--1--
  |                                   **     **     **                            *** *** ***** * *** *** ***** *        
  |       
  |  bass
D |-----------------------------------------------------------------------------------------------------------------------------------------------------------------------------
A |-----------------------------------------------------------------------------------------------------------------------------------------------------------------------------
E |-----------------------------------------------------------------------------------------------------------------------------------------------------------------------------
A |--0---77777---10xxx0---99999---9999-----------------5-7-5----------------2-3-2-000-000-00000-0-000-000-00000-0-5-5-5-5-5-5-5-5-1-1-1-1-1-1-1-1-3-3-3-3-3-3-3-3-0----4--3--1--

     1x
     Guitar Left
B |----------------------------------------------------------------------------------------------------------------------------------------------------------
Gb|----------------------------------------------------------------------------------------------------------------------------------------------------------
D |------------------------------------------------------------------------------------------------------------------------------------------------------.---
A |---------------------------------------------------------------------------------------------------------------------------3---------------1---------(1)--
E |--5-1-0-1-3-0-0-0-0-5-1-0-1-3-1-0-5-1-0-1-3-0-0-0-0-5-1-0-/3---0---5-1-0-1-3-0-0-0-0-5-1-0-1-3-1-0-5-1-0-1-3-0-0-0-0-5-1-0-3---------------1---------(1)--
A |--5-1-0-1-3-0-0-0-0-5-1-0-1-3-1-0-5-1-0-1-3-0-0-0-0-5-1-0-/3---0---5-1-0-1-3-0-0-0-0-5-1-0-1-3-1-0-5-1-0-1-3-0-0-0-0-5-1-0-3---------------1---------(1)--
  |      *     * * * *     * * * * *     *     * * * *     *              *     * * * *     * * * * *     *     * * * *     * 
  |
  |  Guitar Right (bass follows guitar right)
B |-----------------------------------------------------------------------------------------------------------------------------------------------------------
Gb|-----------------------------------------------------------------------------------------------------------------------------------------------------------
D |------------------------------------------------------------------------------------------------------------------------------------------------------.---
A |---------------------------------------------------------------------------------------------------------------------------3---------------1---------(1)--
E |-------------------------------------------------------------------------1-3---0-0---5-1---1-3-1-0-5-1---1-3---0-0---5-1---3---------------1---------(1)--
A |-------------------------------------------------------------------------1-3---0-0---5-1---1-3-1-0-5-1---1-3---0-0---5-1---3---------------1---------(1)--
                                                                                  * *         * * * *             * * 

     3x
B |------------------------------------------------------------------
Gb|------------------------------------------------------------------
D |------------------------------------------------------------------
A |------------------------------------------------------------------
E |--5-1-0-1-3-0-0-0-0-5-1-0-1/3-0-0-5-1-0-1-3-0-0-0-0-5-1-0-/3---0--
A |--5-1-0-1-3-0-0-0-0-5-1-0-1/3-0-0-5-1-0-1-3-0-0-0-0-5-1-0-/3---0--
         *     * * * *     * *   * *     *     * * * *     *  

     1x
B |-------------------------------------------------------------------
Gb|-------------------------------------------------------------------
D |-------------------------------------------------------------------
A |-------------------------------------------------------------------
E |--5-1-0---5-1-0-1-3-1-0---5-1-0---5-1-0---5-1-0-1-3-1-0----/3---0--
A |--5-1-0---5-1-0-1-3-1-0---5-1-0---5-1-0---5-1-0-1-3-1-0-00-/3---0--
       * *     * * * * * *     * *     * *   * * * * * * * **

     1x
B |---------------------------------------------------------------
Gb|---------------------------------------------------------------
D |---------------------------------------------------------------
A |----------------------------------------------------3-------1--
E |--5-1-0-1-3-0-0-0-0-5-1-0-1/3-0-0-5-1-0-1-3-0-0-0-0-3-------1--
A |--5-1-0-1-3-0-0-0-0-5-1-0-1/3-0-0-5-1-0-1-3-0-0-0-0-3-------1--
         *     * * * *     * *   * *     *     * * * *      

     1x
     Chorus
     Guitar Left (x = repeat chord) 
B |-----------------------------------------------------------------------------------------------------------------------------------------------------------
Gb|------10--------------11-----------------------------------------------------------------------------------------------------------------------------------
D |------9---------------10------------------------------------7-----4---------------------------------------------------------------------7-----4------------
A |--0---7xxxx---xxxx0---8xxxx---xxxx--------------------------x-----x---------------------------------------------------------------------x-----x---------1--
E |--0---------------0--------------------------------5-7-5----5-----2-----2-3-2-000-000-00000-0-000-000-00000-0------------------5-7-5----5-----2-----2-5-1--
A |--0---------------0--------------------------------5-7-5-00----00----00-2-3-2-000-000-00000-0-000-000-00000-0------------------5-7-5-00----00----00-2-5----
  |                                                         **    **    **       *** *** ***** * *** *** ***** *                        **    **    **
  |
  |  Guitar Right (x = repeat chord) 
B |-----------------------------------------------------------------------------------------------------------------------------------------------------------
Gb|------10--------------11-----------------------------------------------------------------------------------------------------------------------------------
D |------9---------------10-------------14-----12-------------------------------------------------------------------14-----12---------------------------------
A |--0---7xxxx---xxxx0---8xxxx---xxxx---x------x--------------------------------------------------------------------x------x-------------------------------1--
E |--0---------------0---------------00-12--00-10--00-5-7-5----------------2-3-2-000-000-00000-0-000-000-00000-0-00-12--00-10--00-5-7-5----------------2-5-1--
A |--0---------------0---------------00-----00-----00-5-7-5----------------2-3-2-000-000-00000-0-000-000-00000-0-00-----00-----00-5-7-5----------------2-5----
  |                                  **     **     **                            *** *** ***** * *** *** ***** * **     **     **          
  |       
  |  bass
D |-----------------------------------------------------------------------------------------------------------------------------------------------------------
A |-----------------------------------------------------------------------------------------------------------------------------------------------------------
E |--------------------------------------------------------------------------------------------------------------------------------------------------------1--
A |--0---77777---77770---88888---8888-----------------5-7-5----------------2-3-2-000-000-00000-0-000-000-00000-0------------------5-7-5----------------2-5----

     1x
     Guitar Left (x = repeat chord)                                                                               ring out~~~~~~~~~~~~~~~~~~~~~~~~~~~~~~~~~~~~~~~~~~~~ BPM 134 > 60
B |----------------------------------------------------------------------------------------------------------------------------------------------------------------------------------
Gb|------10------13-------12---------------------------------------------------------------------------------------------------------------------------------------------------------
D |------9-------12-------11------------------------------------7-----4---------------------------------------------5-----5-----5---7-----7-----7---3-----3-----3--------------------
A |--0---7xxxx---10xxx0---9xxxx---xxxx--------------------------x-----x-----------------------------------------------------------------------------------------------------4--3--1--
E |--0----------------0--------------------------------5-7-5----5-----2-----2-3-2-000-000-00000-0-000-000-00000-0-3-----3-----3---5-----5-----5---1-----1-----1-------------4--3--1--
A |--0----------------0--------------------------------5-7-5-00----00----00-2-3-2-000-000-00000-0-000-000-00000-0-------------------------------------------------0----0000-4--3--1--
  |                                                          **    **    **       *** *** ***** * *** *** ***** *                                                      **** *  *  *
  |
  |  Guitar Right (x = repeat chord)                                                                              ring out~~~~~~~~~~~~~~~~~~~~~~~~~~~~~~~~~~~~~~~~~~~~~  
B |----------------------------------------------------------------------------------------------------------------------------------------------------------------------------------
Gb|------10------13-------12---------------------------------------------------------------------------------------------------------------------------------------------------------
D |------9-------12-------11-------------14-----12-----------------------------------------------------------------------------------------------------------------------------------
A |--0---7xxxx---10xxx0---9xxxx---xxxx---x------x-------------------------------------------------------------------5-----5-----5---1-----1-----1---3-----3-----3-----------4--3--1--
E |--0----------------0---------------00-12--00-10--00-5-7-5----------------2-3-2-000-000-00000-0-000-000-00000-0------------------------------------------------------0000-4--3--1--
A |--0----------------0---------------00-----00-----00-5-7-5----------------2-3-2-000-000-00000-0-000-000-00000-0-5-----5-----5---1-----1-----1---3-----3-----3---0----0000-4--3--1--
  |                                   **     **     **                            *** *** ***** * *** *** ***** *                                                      **** *  *  *
  |       
  |  Bass
D |----------------------------------------------------------------------------------------------------------------------------------------------------------------------------------
A |----------------------------------------------------------------------------------------------------------------------------------------------------------------------------------
E |----------------------------------------------------------------------------------------------------------------------------------------------------------------------------------
A |--0---77777---10xxx0---99999---9999-----------------5-7-5----------------2-3-2-000-000-00000-0-000-000-00000-0-5-5-5-5-5-5-5-5-1-1-1-1-1-1-1-1-3-3-3-3-3-3-3-3-0----0000-4--3--1--