back
Chicago - You're The Inspiration

Guitar 1:
    G#          C#     D#    G#                 C#       D#
e |-------------------------------|-------------------------------|
B |-1-2-4---2-1--------------1--1-|-1-2-4---2-1-------------------|
G |-------------1--1-1/3--3-------|-------------1--1-1^2^3--------|
Guitar 2:
D |-------------------------------|-------------6--------8--------|
A |-------------4-----------------|-6-8-10--8-6-4--------6--------|
E |-4-6-8---6-4-------------------|-4-6-8---6-4-------------------|
 B                                F#
  You know our love was meant to be
G#m           F#              E
  The kind of love to last forever
F# B                         F#
    And I want you here with me
G#m      F#              E
  From tonight until the end of time
F#         B
You should know
E            A
Everywhere I go
D#           B
Always on my mind
C#    F#
In my heart
D#    G#
In my soul, baby
D#
You're the meaning in my life
G#              A#
You're the inspiration
D#
  You bring feeling to my life
G#              A#
You're the inspiration
F#               C#
  Wanna have you near me
  B
I wanna have you hear me saying,
F#                             C#   F#
 "No one needs you more than I need you
 B                E        F#
e |----------------------------|
B |-4-5--7---5--4--------------| Guitar 1
G |---------------4--4-4^5^6---|
D |---------------9--------11--|
A |-9-11-13--11-9-7--------9---| Guitar 2
E |-7-9--11--9--7--------------|
      B
And I know (And I know)
                              F#
Yes I know that it's plain to see
G#m     F#                E
  So in love when we're together
F#      B
  Now I know (Now I know)
                  F#
That I need you here with me
G#m      F#              E
  From tonight until the end of time
 F#         B
You should know (Yes, you need to know)
E            A
Everywhere I go
       D#           B
You're always on my mind
       C#    F#
You're in my heart
D#    G#
In my soul
[Chorus, end with:]
F#                             C#   D#
 "No one needs you more than I need you"
                G#           A#
Oh, oh, oh, oh, oh.  Oh, oh, oh
| D# | D# | G# | A# |
F#               C#
  Wanna have you near me
  B
I wanna have you hear me saying,
F#                                  C#
 "No one needs you more than I need you"
F
You're the meaning in my life
Bb              C
You're the inspiration
F
  You bring feeling to my life
Bb              C
You're the inspiration
            ____
         F                      |
When you love somebody          |
              Bb    F C         |
To the end of time              |
         F                      |
When you love somebody          | 2x
             Bb                 |
Always on my mind               |
             No one             |
              F         C       |
    needs you more than I       |
                            ____|