[back]
Artist: Papa Roach
Song: Broken Home
 
       last time hold this note
e|--------------------------|---------------------|
B|--------------------------|---------------------|
G|--------------------------|---------------------| x4
D|-0h4444-06666-07777-06666-|--07777--------------|
A|-0h4444-04444-04444-04444-|--04444--------------|
D|-0h4444-04444-04444-04444-|--04444--------------|

Intro part 2

e|---------------------|
B|---------------------|
G|---------------------| x4
D|-99--944--455--577---|
A|-99--944--455--577---|
D|-99--944--455--577---|
 
Verse
       end of verse/pre chorus
e|-------------------------|     e|------------------------|
B|-------------------------|     B|------------------------|
G|-------6/77--7/99--------| x4  G|------------------------|
D|-0h44--x/xx--x/xx--0h77--|     D|-0h44--0h44--0h44--0h44-|
A|-0h44--4/55--5/77--0h77--|  A|-0h44--0h44--0h44--0h44-|
D|-0h44--------------0h77--|  D|-0h44--0h44--0h44--0h44-|
 
Chorus
 
e|------------------------------------------|
B|------------------------------------------|
G|-7777-6666--------------------------------| x2
D|-xxxx-xxxx-9999-7777--0h44-0h44-0h44-0h44-|
A|-5555-4444-9999-7777--0h44-0h44-0h44-0h44-|
D|-----------9999-7777--0h44-0h44-0h44-0h44-|

on second chorus instead of playing 0h44 play the intro once instead

repeat verse

repeat chorus first time
play this for second third and fourth choruses

e|------------------------------------|
B|------------------------------------|
G|-7777-6666--------------------------|
D|-xxxx-xxxx-9999-7777---444444444444-|
A|-5555-4444-9999-7777---444444444444-|
D|-----------9999-7777---444444444444-|

break

repeat intro four times

then goes to this

e|--------------------------------------------|
B|--------------------------------------------|
G|--------------------------------------------|
D|-0h444-0h4--0h444-0h4--0h444-0h4--0h444-0h4-|
A|-0h444-0h4--0h444-0h4--0h444-0h4--0h444-0h4-|
D|-0h444-0h4--0h444-0h4--0h444-0h4--0h444-0h4-|

PICK SLIDE!!!!!!!!

this bits played fast!

e|------------------------|
B|------------------------|
G|------------------------| x4
D|-9999--4444--5555--7777-|
A|-9999--4444--5555--7777-|
D|-9999--4444--5555--7777-|

repeat intro part 2 eight times but speed up after the fourth one

ending - the mute note on the end is to create a pause between each one

e|----------------------------|
B|----------------------------|
G|----------------------------|
D|-4444x--4444x--4444x--4444x-|
A|-4444x--4444x--4444x--4444x-|
D|-4444x--4444x--4444x--4444x-|

this is the part at the end where its fading out.  Use the same
effect as in the intro

e|--------------------------------------------|
B|--------------------------------------------|
G|--------------------------------------------|
D|-44444444--44444444--44444444--44444444--4x-|
A|-44444444--44444444--44444444--44444444--4x-|
D|-44444444--44444444--44444444--44444444--4x-|