WhenYaGetDrafted

My Favorite Web Sites

Angelfire - Free Home Pages
Free Web Building Help
Lycos - Search the Web
CareerPath - Where Employers and Employees Click

e-|--------------------------------------------------------
B-|--------------------------------------------------------
G-|-6-6-4-4-6-6-9-9-9-6-6-4-4-6-6-9-9-9-6-6-4-4-6-6-9-9-9--
D-|-6-6-4-4-6-6-9-9-9-6-6-4-4-6-6-9-9-9-6-6-4-4-6-6-9-9-9--
A-|-4-4-2-2-4-4-7-7-7-4-4-2-2-4-4-7-7-7-4-4-2-2-4-4-7-7-7--
E-|--------------------------------------------------------

e-|----------------------|
B-|----------------------|
G-|-------11-11-11-11-11-|
D-|-9-9-9-11-11-11-11-11-|
A-|-9-9-9--9--9--9--9--9-|
E-|-7-7-7----------------|

verse:
e-|-------------------------------------------------------
B-|-------------------------------------------------------
G-|-------------------------------11-11-11-11-11-11-11-11-
D-|-9-9-9-9-9-4-4-4-4-4-7-7-7-7-7-11-11-11-11-11-11-11-11-
A-|-9-9-9-9-9-4-4-4-4-4-7-7-7-7-7--9--9--9--9--9--9--9--9-
E-|-7-7-7-7-7-2-2-2-2-2-5-5-5-5-5-------------------------

e-|-------------------------------------------------------
B-|-------------------------------------------------------
G-|-------------------------------11-11-11-11-11-11-11-11-
D-|-9-9-9-9-9-4-4-4-4-4-7-7-7-7-7-11-11-11-11-11-11-11-11-
A-|-9-9-9-9-9-4-4-4-4-4-7-7-7-7-7--9--9--9--9--9--9--9--9-
E-|-7-7-7-7-7-2-2-2-2-2-5-5-5-5-5-------------------------

e-|-----------------------------------------
B-|-----------------------------------------
G-|-----------------------------------------
D-|-9-9-9-9-9-4-4-4-4-4-7-7-7-7-7-2-2-8-8-7-
A-|-9-9-9-9-9-4-4-4-4-4-7-7-7-7-7-2-2-6-6-7-
E-|-7-7-7-7-7-2-2-2-2-2-5-5-5-5-5-0-0-4-4-5-

e-|---------------------------------------------|
B-|---------------------------------------------|
G-|-------------------------------6-6-6-6-6-6-6-|
D-|-9-9-9-9-9-4-4-4-4-4-7-7-7-7-7-6-6-6-6-6-6-6-|
A-|-9-9-9-9-9-4-4-4-4-4-7-7-7-7-7-4-4-4-4-4-4-4-|
E-|-7-7-7-7-7-2-2-2-2-2-5-5-5-5-5---------------|

Chorus:
e-|-----------------------------------------------------------------
B-|-----------------------------------------------------------------
G-|-----------------------------------------------------------------
D-|-----------------------------------------------------------------
A-|-----------------------------------------------------------------
E-|-2-2-3-0-2-2-3-0-2-2-3-0-2-2-2-2-2-2-3-0-2-2-3-0-2-2-3-0-2-2-2-2-

high part in second chorus is exactly the same but played on the "A" string...

solo=????