VoicesOfTheStreets

Total Chaos-

VoicesOfTheStreets

improvise intro...
(played around C#).

|------------------------------------------|
|------------------------------------------|
|------------------------------------------|
|-6-6-6-6-6--------------------------------|
|-4-4-4-4-4-6-6-6-6-6-6-4-4-4-4-4-6-6-6/5/6|
|-----------4-4-4-4-4-4-2-2-2-2-2-4-4-4/3/4|
"The punx are on the streets, the skins are
out there to...."

|------------------------------------------|
|------------------------------------------|
|------------------------------------------|
|-4---6------------------------------------|
|-2-4-4------------------------------------|
|---2--------------------------------------|
"The punx are..."(upbeat part of the song.)