TurningJapanese

No Use For a Name-

Turning Japanese

Intro:

e---3--3--3--3---1---1-----------1--------
b---3--3--3--3---1---1---3---3---1--------(repeat)
g------------------------2---2------------

gtr. 2 intro(comes in after gtr. 1):

e---15--15--15--15---13---13---10---10---13----
b---15--15--15--15---13---13---10---10---13----
g----------------------------------------------

Verses:
(this isn't the exact strum pattern, but play these chords)

G Em
e----------3---3----------3---3----------0---0---------0---0-
b----------3---3----------3---3----------0---0---------0---0-
g------------------------------------------------------------
d----5--5--------------------------2--2----------2--2--------
a----5--5-----------5--5-----------2--2----------2--2--------
e----3--3-----------3--3-----------0--0----------0--0--------
(repeat)

end with:

A C D
e-------------------------
b-------------------------
g------------5-------7----
d-----7------5-------7----
a-----7------3-------5----
e-----5-------------------

Gtr. 2 plays this after 1st & 3rd measures:

e----8p--7---------------------------------------
b------------8-----------------------------------
g------------------------------------------------
d------------------------------------------------
a--------------------------------------5--6--7~--
e------------------------------------------------

after verse:

G C E D C E D G C E D C E D
e---------------------------------------------------------------------------
b---------------------------------------------------------------------------
g---------5---9---7---5----5---9--9--7--7-------5---9---7---5----5---9--7---
d-----5---5---9---7---5----5---9--9--7--7---5---5---9---7---5----5---9--7---
a-----5---3---7---5---3----3---7--7--5--5---5---3---7---5---3----3---7--5---
e-----3-------------------------------------3-------

riff 2:

e-----10--10--10--10---8---8---5---5---8-----
b-----10--10--10--10---8---8---5---5---8-----
g--------------------------------------------

Chorus:

g---------------------7--7---7-7-7-----------------
d---5-5-5-5-5-5-5-5---7--7---7-7-7-----------------
a---5-5-5-5-5-5-5-5---5--5---5-5-5--5--3--2--0-----
e---3-3-3-3-3-3-3-3--------------------------------

g---------------------5--5------------------------
d---3-3-3-3-3-3-3-3---5--5------------------------
a---3-3-3-3-3-3-3-3---3--3------------3--2--0-----
e---1-1-1-1-1-1-1-1----------0--1--3-----------3--
(repeat)

end with:
G F# F F#
e---------------------------
b---------------------------
g---------------------------
d----5----4----3----4-------
a----5----4----3----4-------
e----3----2----1----2-------

G C E D C E D
e------------------------------------------
b------------------------------------------
g------------5---9---7---5----5---9--7-----
d--------5---5---9---7---5----5---9--7-----
a--------5---3---7---5---3----3---7--5-----
e--------3---------------------------------

Bridge:

G D
e----3---3---3---3---3---3---3---3---5---5---5---5---
b----3---3---3---3---3---3---3---3---7---7---7---7---
g----------------------------------------------------
d----------------------------------------------------
a----------------------------------------------------
e----------------------------------------------------

F C
e---1---1---1---1---1---1---1---1---3---3---3---3---
b---1---1---1---1---1---1---1---1---5---5---5---5---
g---------------------------------------------------
d---------------------------------------------------
a---------------------------------------------------
e---------------------------------------------------

Solo:

e----12--10--12--10---7---10----7--7--5---3---5-----5--3--5--3---
b----12--10--12--10---7---10----7--7--5---3---5-----5--3--5--3---
g----------------------------------------------------------------
d----------------------------------------------------------------
a----------------------------------------------------------------
e----------------------------------------------------------------

e---0---3----------------------
b---0---3---3--5--6--8--10--12-
g------------------------------
d------------------------------
a------------------------------
e------------------------------