TheManWithTheDogs

intro and verse 1
e-|----------------------------------|
B-|----------------------------------|
G-|----------------------------------|
D-|--8-8-8--6-6--3-3-3--8-8-8--6--3--|
A-|--8-8-8--6-6--3-3-3--8-8-8--6--3--|
E-|--6-6-6--4-4--1-1-1--6-6-6--4--1--|

high part in verse 1...
e-|--------------------------------------------------------|
B-|--------------------------------------------------------|
G-|-8-8-8--6-6-3-3-3-8-8-8-6-3--8-8-8-6-6-3-3-3--8-8-8-8-8-|
D-|-8-8-8--6-6-3-3-3-8-8-8-6-3--8-8-8-6-6-3-3-3--8-8-8-8-8-|
A-|-6-6-6--4-4-1-1-1-6-6-6-4-1--6-6-6-4-4-1-1-1--6-6-6-6-6-|
E-|--------------------------------------------------------|

chorus(i guess)
e-|--13-13-13-13-13-13-13-13--11-11-11-11-11-11-11-11--|
B-|----------------------------------------------------|repeat a bit

bridge
e-|-------------------------------------------|---------------------
B-|-------------------------------------------|---------------------
G-|-------------------------------------------|---------------------
D-|-10-10-10--9-10-10-10-10--8-8-8-7-8-8-8-8--|-10-10-10-10--8-8-8--
A-|-10-10-10--9-10-10-10-10--8-8-8-7-8-8-8-8--|-10-10-10-10--8-8-8--
E-|--8--8--8--7--8--8--8--8--6-6-6-5-6-6-6-6--|--8--8--8--8--6-6-6--

e-|--------------------------------------------------
B-|--------------------------------------------------
G-|--------------------------------------------------
D-|-10-10-10-10-8-8----------------------------------
A-|-10-10-10-10-8-8----------------------------------
E-|--8--8--8--8-6-6----------------------------------

the verse that is played higher...(I think its the third verse...but I"m too lazy to get out the cd and listen to it to find out) just play this verse two frets higher than the first verse and do the same with the chorus

the second bridge...or the outro however you want to look at it
e-|------------------------------------------------
B-|------------------------------------------------
G-|------------------------------------------------
D-|-12-12-12-11-11-12-12--10-10-10-9-9-10-10-------
A-|------------------------------------------------
E-|------------------------------------------------