TheAnswerIsStillNo

No Use For a Name-

The Answer is Still No

-=intro=-

e|--------------------------------------------------------
B|------------------------1-------0-----------------------
G|------4-------4------2-------2------------------------
D|----2-------2------3-------0--------------------------
A|--0-------3--------------------------------------------
E|--------------------------------------------------------

(guitar 1) played twice

e|--------------------------------------------------------
B|--------------------------------------------------------
G|---------5----------------------------------------------
D|-7-------5-(x12)-3--------7-----------------------------
A|-7-(x12)-3-------3-(x12)--5--(x12)----------------------
E|-5---------------1--------5-----------------------------

(guitar 2)

e|--------------------------------------------------------
B|--------------------------------------------------------
G|-4-------4----------------------------------------------
D|-2-(x12)-2-(x12)--10-(xlots)/-12-(x3)-------------------
A|-0-------3--------8---------/-10------------------------
E|--------------------------------------------------------

e|--------------------------------------------------------
B|--------------------------------------------------------
G|--------------------------------------------------------
D|9-(many-times)-10-(many)-10/12-12-12---------------
A|--------------------------------------------------------
E|--------------------------------------------------------

-=verse=-
(figure out the rhythm yourself.. chord changes shown only)

e|--------------------------------------------------------
B|--------------------------------------------------------
G|--------------------------------------------------------
D|-7----------------------------5-------------------------
A|-7----------------------------3-------------------------
E|-5----------------------------3-------------------------
i couldnt understand why you left me standing here

e|--------------------------------------------------------
B|--------------------------------------------------------
G|--------------------------------------------------------
D|-----------3-----------------------------7---5----------
A|-----------3-----------------------------5---3----------
E|-----------1--------------------------------------------
flickering out like a candle in the wind

e|--------------------------------------------------------
B|--------------------------------------------------------
G|--------------------------------------------------------
D|-----5------------------------------------7-------------
A|-----5------------------------------------7-------------
E|-----3------------------------------------5-------------
the memories are laced with shame theres no intention

e|--------------------------------------------------------
B|--------------------------------------------------------
G|--------------------------------------------(10)*-------
D|-3---------------7-------------5-----------3(10)--------
A|-3---------------5-------------5-----------3(8-)--------
E|-1---------------5-------------3-----------1------------
of working out the problems that remain the same *part in ()'s played by guitar2

-=chorus=-

e|--------------------------------------------------------
B|--------------------------------------------------------
G|--------------------------------------------------------
D|-5------------------------------------------------------
A|-3-------------------------------5---6------------------
E|---------------------------------3---4------------------
little children standing in the hall

e|--------------------------------------------------------
B|--------------------------------------------------------
G|--------------------------------------------------------
D|-------------------------------7------------------------
A|-7-----------------5-----------5------------------------
E|-5-----------------3-----------5------------------------
never taught them anything at all

e|--------------------------------------------------------
B|--------------------------------------------------------
G|--------------------------------------------------------
D|------------------------------------------5-------------
A|-3----------------------------------------3-------------
E|-1------------------------------------------------------
and if you were young again would you do it different

e|--------------------------------------------------------
B|--------------------------------------------------------
G|--------------------------------------------------------
D|--------------------------------------------------------
A|-5------------------------------------------------------
E|-3------------------------------------------------------
or make your way just trying to find

e|--------------------------------------------------------
B|--------------------------------------------------------
G|--------------------------------------------------------
D|-2--(6)*------------------------------------------------
A|-2------------------------------------------------------
E|-0------------------------------------------------------
the fiction in the fact of life (* played by 2nd guitar)

-=bridge=-

e|--------------------------------------------------------
B|--------------------------------------------------------
G|--------------------------------------------------------
D|-5------------------------------------------------------
A|-3--5----3-----------5--5---2---------------------------
E|----3----1-----------2--3---0---------------------------
does anybody care does anybody care

-=solo=-
(guitar 1)

e|--------------------------------------------------------
B|--------------------------------------------------------
G|---------7----------------------7------------------------
D|-7---5--7-------5--2------7-5--7---5----2----7----------
A|-7---5--5-------5--2------7-5--5---5----2----7----------
E|-5---3-----------3--0------5-3------3----0----5-----------

(guitar 2)

e|--------------------------------------------------------
B|--------------------------------------------------------
G|--------------------------------------------------------
D|---------12-10-9---------10---9----12--10--9-------
A|-10--9------------10-11-------------------------10--11--
E|--------------------------------------------------------

e|--------------------------------------------------------
B|--------------------------------------------------------
G|--------------------------------------------------------
D|--10---\--9---\---7-------------------------------------
A|--------------------------------------------------------
E|--------------------------------------------------------