SuicideMission

Total Chaos-

Suicide Mission

-=-Intro-=-

----------------------------------------------------------------------
----------------------------------------------------------------------
----------------------------------------------------------------------
14-14--14---10-10-10-----7-7-7----10-10-10----------------------------
14-14--14---10-10-10-----7-7-7----10-10-10----------------------------
12-12--12----8--8--8-----5-5-5-----8--8--8----------------------------

also play the above during the verse...

-=-Chorus-=-
(Fast fast fast)

----------------------------------------------------------------------
----------------------------------------------------------------------
----------------------------------------------------------------------
-5-5------------------4-----------------------5-5------4--------------
-5-5(super fast now)--4(fast also, please)----5-5------4--------------
-3-3------------------2-----------------------3-3------2--------------

There are the chords/notes. Now, you can play along. (Well, I can.)