SittingDuck

No Use For a Name-

Sitting Duck

- FULL BEND
- BEND AND RELEASE
/ - PULL OFF
NO RHYTHMS, JUST CHORDS

e|--------------------------------------------------------------------|
B|--------------------------------------------------------------------|
G|-5----------5----------5--5--5-------------------------------------|
D|-5----------5--5--3---5--5--5-5--3----------------------------------|
A|-3----------3--5--3---3--3--3-5--3----------------------------------|
E|----------------3--1------------3--1-------------------------------|

1, 2, 3, 4...... i read the morning paper someone had just died........

e|--------------------------------------------------------------------|
B|--------------------------------------------------------------------|
G|-------------------5------------------------------------------------|
D|--7--5--7--5-3---5-7------------------------------------------------|
A|--7--5--7--5-3---3-7------------------------------------------------|
E|--5--3--5--3-1-----5------------------------------------------------|

lookin for a story bout violence, written by a lawyer and his defence...

e|--------------------------------------------------------------------|
B|--------------------------------------------------------------------|
G|--5----------5--5--5-------------------------------------|
D|--5--5--3---5--5--5-5--3----------------------------------|
A|--3--5--3---3--3--3-5--3----------------------------------|
E|----------------------3--1----------------------------------|

i turn the television on to get away a quick reminder.........

e|--------------------------------------------------------------------|
B|--------------------------------------------------------------------|
G|--------------------5-----5--5--3---------------------------------|
D|--7--7--7--5--3---5--5--5--5--3-------------------------------------|
A|--7--5--7--5--3---3--5--3--2--1-------------------------------------|
E|--5--3--5--3--1-------3---------------------------------------------|

learned another lesson in history, written like a murder............

e|--------------------------------------------------------------------|
B|------------(just hit each chord once and let ring)-------------------|
G|-----5----------------5---------------------------------------------|
D|--3--5--5--2--3--3--5-----------------------------------------------|
A|--3--3--5--2--3--3--3----------------------------------------------|
E|--1------3--0--1--5-------------------------------------------------|

fear is not the way to make it work and be as one........

e|--------------------------------------------------------------------|
B|--------------------------------------------------------------------|
G|-----5----------------5---------------------------------------------|
D|--3--5--5--2--3--5--5--(this chord is played instead of the A during the solo)--|
A|--3--3--5--2--3--5--3-----------------------------------------------|
E|--1------3--0--1--3-------------------------------------------------|

so raise your flag and make your statements.........

SOLO:

e|------------------------------------------------------------15------|
B|-------------------------------------------------------15-----15-|
G|--12-10-9------------9-10-------10-10-9------9----------------------|
D|------------12-10-12-------12-------------12----10------------------|
A|--------------------------------------------------------------------|
E|--------------------------------------------------------------------|

e|--------------------------------------------------------------------|
B|-15/13-----13-15----------------------------------------------------|
G|--------14----------------------------------------------------------|
D|--------------------------------------------------------------------|
A|--------------------------------------------------------------------|
E|--------------------------------------------------------------------|

SOLO FOR GUIT. 2 (same as chorus, but play the last C instead of the first A)

e|--------------------------------------------------------------------|
B|--------------------------------------------------------------------|
G|-5---------------5--------------------------------------------------|
D|-5--5--7--5--3--5--5--3---------------------------------------------|
A|-3--5--7--5--3--3--5--3---------------------------------------------|
E|-----3--5--3--1-----3--1--------------------------------------------|