RiotCity

Total Chaos-

RiotCity
-=-Intro-=-
(and bridge/chorus)

----------------------------------------------------------------------
----------------------------------------------------------------------
----------------------------------------------------------------------
9-9---------5-----7-------9-9---------5---7---------------------------
9-9---------5-----7-------9-9---------5---7---------------------------
7-7---------3-----5-------7-7---------3---5---------------------------

Now, for the sing-a-long part, mute and scrape really fast during the 9 part.

9

7
----------------------------------------------------------------------
----------------------------------------------------------------------
----------------------------------------------------------------------
X-X-X-------5-----7-------X-X-X-------5---7---------------------------
X-X-X-------5-----7-------X-X-X-------5---7---------------------------
X-X-X-------3-----5-------X-X-X-------3---5---------------------------

Got it? Well, listen to the CD...its really clear what to play where.