PunkNoDie

Total Chaos-

Punk No Die

INTRO:

e|-------------------------|
B|-------------------------|
G|-------------------------|
D|-5--7--8--7--5---7--8--7-|
A|-5--7--8--7--5---7--8--7-|
E|-3--5--6--5--3---5--6--5-|

VERSE:

e|--------------|
B|--------------|
G|--------------|
D|-55555555-787-|
A|-55555555-787-|
E|-33333333-565-| x4

CHORUS:

e|--------------------------|
B|--------------------------|
G|--------------------------|
D|-5--666-5-666-5-666-5-666-|
A|-5--666-5-666-5-666-5-666-|
E|-3--444-3-444-3-444-3-444-|

SONG GOES LIKE THIS:

Intro
Verse x4
Chorus x 4
Verse2 x 4
Chorus x 4
Verse3 x 2
Chorus
Verse4 x 2
Chorus x 4
Verse 5 x 4
Chorus x 3

0UTRO:

e|---------------|
B|---------------|
G|---------------|
D|-6-6-6-6-6-6-5-|
A|-6-6-6-6-6-6-5-|
E|-4-4-4-4-4-4-3-| (hold last chord)