PullMyStrings

intro and verse...
e-|---------------------------------|
B-|---------------------------------|
G-|-----7-5-----7-5-----7-5-----7-5-|
D-|-5/7-7-5-7-7-7-5-5/7-7-5-7-7-7-5-|
A-|-5/7-5-3-7-7-5-3-5/7-5-3-7-7-5-3-|
E-|-3/5-----5-5-----3/5-----5-5-----|

the high part of the verse...
e-|---------------------------------|
B-|---------------------------------|
G-|-----9-7-----9-7-----9-7-----9-7-|
D-|-7\9-9-7-9-9-9-7-7/9-9-7-9-9-9-7-|
A-|-7/9-7-5-9-9-7-5-7/9-7-5-9-9-7-5-|
E-|-5/7-----7-7-----5/7-----7-7-----|

the my payola part...
e-|---------------------|
B-|---------------------|
G-|-------------5-5-5-3-|
D-|-5-5-5-5-5-5-5-5-5-3-|
A-|-5-5-5-5-5-5-3-3-3-1-|
E-|-3-3-3-3-3-3---------|

is my cock big enuff part...
e-|-------------------|
B-|-------------------|
G-|-----------9-------|
D-|-5----9----9----10-|
A-|-5----9----7----10-|
E-|-3----7----------8-|