LetsLynchTheLandlord

---------------------------------
---------------------------------
---------------------------------
-----3---------------3---5-3-----
-5-----5-3---0-3-5-----5-----5-3-
---------------------------------

The bar chords during the song are just the B chords played on the E, A and D strings:

-----------------------------------
-----------------------------------
-----------------------------------
-7---7-7-7-7-7-7---5---5-5-5-5-5-5-
-5---5-5-5-5-5-5---3---3-3-3-3-3-3-
-5---5-5-5-5-5-5---3---3-3-3-3-3-3-

then

---------------------------------------
---------------------------------------
---------------------------------------
-7---7-7-7-7-7-7---5---5-5-5-5-5-5---9-
-5---5-5-5-5-5-5---3---3-3-3-3-3-3---7-
-5---5-5-5-5-5-5---3---3-3-3-3-3-3---7-
^I think this is right
In the L7 cover of this song (on the virus 100 album) this is how they play it. (except fast and thrashy with heaps of distortion)

---------------------------------
---------------------------------
---------------------------------
---------------------------------
-----3---------------3---5-3-----
-5-----5-3---0-3-5-----5-----5-3-

The bar chords during the song are just the E chords played on the E, A and D strings:
-----------------------------------
-----------------------------------
-----------------------------------
-7---7-7-7-7-7-7---5---5-5-5-5-5-5-
-7---7-7-7-7-7-7---5---5-5-5-5-5-5-
-5---5-5-5-5-5-5---3---3-3-3-3-3-3-

then

---------------------------------------
---------------------------------------
---------------------------------------
-7---7-7-7-7-7-7---5---5-5-5-5-5-5---9-
-7---7-7-7-7-7-7---5---5-5-5-5-5-5---9-
-5---5-5-5-5-5-5---3---3-3-3-3-3-3---7-