KeponePoisoning

intro
e----------------------------------------------------------------------------
B----------------------------------------------------------------------------
G----------------------------------------------------------------------------
D--7-5-7-x-10-9----7-7-7-7-5-5-5-5-7-7-7-7-10-10-9-9-------------------------
A--7-5-7-x-10-9----7-7-7-7-5-5-5-5-7-7-7-7-10-10-9-9-------------------------
E--5-3-5-x--8-7----5-5-5-5-3-3-3-3-5-5-5-5--8--8-7-7-------------------------
the verse is the same as above....

chorus....
e----------------------------------------------------------------------------
B----------------------------------------------------------------------------
G-------------5-5-------------5-5-------------5-5-9-9-9-9-9-9-7-7-7----------
D-7-7-5-5-7-7-5-5-7-7-5-5-7-7-5-5-7-7-5-5-7-7-5-5-9-9-9-9-9-9-7-7-7--7777777-
A-7-7-5-5-7-7-3-3-7-7-5-5-7-7-3-3-7-7-5-5-7-7-3-3-7-7-7-7-7-7-5-5-5--7777777-
E-5-5-3-3-5-5-----5-5-3-3-5-5-----5-5-3-3-5-5------------------------5555555-