JustifiedBlackEye

No Use For a Name-

Justified Black Eye

arranged for two guitars...
for an approximation of rythm
(im sure im talking gibberish
for some of you)

-=intro=-
(1)

e|--------------------------------------------------------
B|--------------------------------------------------------
G|--------------------------------------------------------
D|---------------------------5-5---5-5-5-5---5---5-5-5----
A|-2--2--2-2-2-2---2--2-2-2--3-3---3-3-3-3---3---3-3-3----
E|-0--0--0-0-0-0---0--0-0-0-------------------------------

e|--------------------------------------------------------
B|--------------------------------------------------------
G|--------------------------------------------------------
D|---------------------------7-7---7-7-7-7---7---7-7-7----
A|-5-5---5-5-5-5---5--5-5-5--5-5---5-5-5-5---5---5-5-5----
E|-3-3---3-3-3-3---3--3-3-3-------------------------------

e|--------------------------------------------------------
B|-------------------------------------------------------- G|-4----------9---------------7--------------11-----------
D|--------------------------------------------------------
A|-2----------7---------------5--------------9------------
E|--------------------------------------------------------

-=more intro=-
(1)

e|--------------------------------------------------------
B|--------------------------------------------------------
G|------------5---------------------7---------------------
D|-2----------5--(x8)----5----------7--(x8)---------------
A|-2--(x8)----3----------5--(x8)----5---------------------
E|-0---------------------3--------------------------------

(2)

e|--------------------------------------------------------
B|--------------------------------------------------------
G|--------------------------------------------------------
D|--------------------------------------------------------
A|-7--9--10------7--10------7--10--9---10-9-7-------------
E|------------8----------7--------------------------------

-=heavy intro part=-
both guitars same

e|--------------------------------------------------------
B|--------------------------------------------------------
G|--------------------------------------------------------
D|-9-9--------------------5-----4-4--7-4-7----------------
A|-7-7--2-2-2-2-----5--7--3-----2-2--5-2-5----------------
E|------0-0-0-0-----3--5----------------------------------

then go back into intro without guitar 2..
-=chorus type part=-
(1)

e|--------------------------------------------|-----------
B|--------------------------------------------|-----------
G|--------------------------------------------|-----------
D|-5-(x8)--7-(x8)--------4-(x8)-5-(x8)-7-(x8)-|-9-(x7)7---
A|-3-------5------2-(x8)-2------3------5------|-7-----5---
E|----------------0---------------------------|-----------

(2)
play this in the part after the vertical line above

e|--------------------------------------------------------
B|--------------------------------------------------------
G|-13--13----13--13----13--13-----13--11------------------
D|--------------------------------------------------------
A|-11--11----11--11----11--11-----11--9-------------------
E|--------------------------------------------------------

-=bridge=-
after second chorus play this small bridge

e|--------------------------------------------------------
B|--------------------------------------------------------
G|--------------------------------------------------------
D|--4-4-4-----4-----5----------4---4---5----5-------------
A|--2-2-2-----2-----3----------2---2---3----3-------------
E|--------------------------------------------------------

"apologies until tonight and another justified black eye"