InitialDistrust

Total Chaos-

Initial Distrust

-=-Intro-=-
(and verse)

----------------------------------------------------------------------
----------------------------------------------------------------------
----------------------------------------------------------------------
10--9-7-7-------10-9-7-7----10-9-7-5----10-9-7-7----------------------
10--9-7-7-------10-9-7-7----10-9-7-5----10-9-7-7----------------------
-8--7-5-5--------8-7-5-5-----8-7-5-3-----8-7-5-5----------------------

and so on and so forth in a similar fashion.

Chorus:

----------------------------------------------------------------------
----------------------------------------------------------------------
----------------------------------------------------------------------
10---9--7~--10--9-7-5--------8~~~~~~7---------------------------------
10---9--7~--10--9-7-5--------8~~~~~~7---------------------------------
-8---7--5~---8--7-5-3--------6~~~~~~5---------------------------------

Again, listen to the CD for timing and stuff.Yah. Do that.