HyperactiveChild

Hyperactive Child
verse:
e-|--------------------------------------------
B-|--------------------------------------------
G-|--------------------8---------------------8-
D-|-10-10-8-8-10-10-10-8--10-10-8-8-10-10-10-8-
A-|-10-10-8-8-10-10-10-6--10-10-8-8-10-10-10-6-
E-|--8--8-6-6--8--8--8-----8--8-6-6--8--8--8---
repeat that over and over again for the verses..

chorus:
e-|--------------------------------------------------------|
B-|--------------------------------------------------------|
G-|---------8-7-5---------8-7-5---------8-7-5--8-7-5-8-7---|
D-|-7-7-5-7-8-7-5-7-7-5-7-8-7-5-7-7-5-7-8-7-5--8-7-5-8-7-7-|
A-|-7-7-5-7-6-5-3-7-7-5-7-6-5-3-7-7-5-7-6-5-3--6-5-3-6-5-7-|
E-|-5-5-3-5-------5-5-3-5-------5-5-3-5------------------5-|