GrowingDown

No Use For a Name-

Growing Down

(xNUMBER) = play chord NUMBER times..(saves space)
h = hammer on
|pm-----| = section is palm muted
-=intro=-

(1)
e|--------------------------------------------------------
B|--------------------------------------------------------
G|----------------------5---------------7---5---4---------
D|--5----------2--------5-(x12)---------7---5---4---7--5--
A|--5-(x12-)---2-(x12)--3---------------5---3---2---7--5--
E|--3----------0------------------------------------5--3--

(2)
e|--------------------------------------------------------
B|-12-12-12-13-15------13-13-13--12-10--15--13--12--10-8--
G|--------------------------------------------------------
D|-9--9--9--10-12------10-10-10--9--7---12--10--9---7--5--
A|-----(x4)-----------------------------------------------
E|--------------------------------------------------------

-=verse=-

e|--------------------------------------------------------
B|--------------------------------------------------------
G|---------------------5---------7------------------------
D|-5---------2---------5-5-(x14)-7-7-(x10)----------------
A|-5-5-(x14)-2-2-(x14)-3-3-------5-5-------2h4------------
E|-3-3-------0-0---------------------------0h2------------

|pm---|
|pm---|
|pm---|
|pm---|

e|-------------------|-----------------------------------|
B|-------------------|-----------------------------------|
G|-------------------|-5-----------------7---------------|
D|-5-------2---------|-5--(x8)--7--------7--(x8)--9------
| A|-5-(x16)-2-(x16)---|-3--------7--(x8)--5--------9--(x8)|
E|-3-------0---------|----------5-----------------7------|

guitar (2) plays this in the part inside the vertical lines

e|--------------------------------------------------------
B|--------------------------------------------------------
G|-5-5-5-5-5-5-5-6-6-6-6-6-6-6-7-7-7-7-7-7-7-8-8-8-8-8-8-8
D|--------------------------------------------------------
A|-3-3-3-3-3-3-3-4-4-4-4-4-4-4-5-5-5-5-5-5-5-6-6-6-6-6-6-6
E|--------------------------------------------------------

-=bridge=-

e|--------------------------------------------------------
B|--------------------------------------------------------
G|-9------7------5-------------9------7------5------------
D|-9-(x8)-7-(x8)-5-(x8)-5------9-(x8)-7-(x8)-5-(x8)-5-----
A|-7------5------3------5-(x8)-7------5------3------5-(x8)
E|----------------------3---------------------------3-----

e|--------------------------------------------------------
B|--------------------------------------------------------
G|--------------------------------------------------------
D|-7-------5------8-8-8-8-8-8-8-7-------------------------
A|-5-(x16)-3-(x8)-6-6-6-6-6-6-6-5-------------------------
E|-5-------3------6-6-6-6-6-6-6-5-------------------------

-=bridge 2nd time through=-

e|--------------------------------------------------------
B|--------------------------------------------------------
G|-9------7------5-------------9------7------5------------
D|-9-(x8)-7-(x8)-5-(x8)-5------9-(x8)-7-(x8)-5-(x8)-5-----
A|-7------5------3------5-(x8)-7------5------3------5-(x8)
E|----------------------3---------------------------3-----

e|--------------------------------------------------------
B|--------------------------------------------------------
G|-----------------------8-------7------------------------
D|-7-------5-------------8-------7-------5--------6-------
A|-5-(x16)-3-(x16)---6-6-6---5-5-5-------5--------6-------
E|-5-------3-------------------------3-3-3----4-4-4-------

|pm---------------------------
(dicky sings here..)

e|--------------------------------------------------------
B|--------------------------------------------------------
G|----8------7--------------------------------------------
D|----8------7------5------5---8--7--5--6--6--7--5-5-5----
A|6-6-6--5-5-5------5------5---6--5--5--6--6--5--5-5-5----
E|--------------3-3-3--3-3-3---6--5--3--4--4--5--3-3-3----
|pm-----------------------|