GomerPyle

Total Chaos-

Gomer Pyle

VERSE:

e:------------------------------------------|
B:------------------------------------------|
G:------------5--5--5--5--------------8--7--|
D:5--5--5--5--5--5--5--5--5--5--5--5--8--7--|
A:5--5--5--5--3--3--3--3--5--5--5--5--6--5--|
E:3--3--3--3--------------3--3--3--3--------|

CHORUS:

e:------------------------------------------------|
B:------------------------------------------------|
G:------------5--5--5--5--8--8--8--8--7--7--7--7--|
D:5--5--5--5--5--5--5--5--8--8--8--8--7--7--7--7--|
A:5--5--5--5--3--3--3--3--6--6--6--6--5--5--5--5--|
E:3--3--3--3--------------------------------------|