FieldsOfAnthenry

No Use For a Name-

Fields Of Antherny

Chord legend:

-D 2 G 3 C 0
---3 ---0 ---1
---2 ---0 ---0
---0 ---0 ---2
---0 ---2 ---3
---x ---3 ---x

[intro]

D G
By a lonely prison wall I heard a young girl callin'
G C G D
Michael they have taken you away
G C D
For you stole Trevelyn's corn
G C
So the young might see the morn
G D
Now a prison ship lies waiting in the bay.
G

[PLAY FILL 1]

e|--------------------------------------------------------
B|--------------------------------------------------------
G|-----5--------------------------------------------------
D|-5---5-------5----5-----2-------------------------------
A|-5---3-------5----5-----2-------------------------------
E|-3-----------3----2-----0-------------------------------
Low lie the fields of Athenry,

e|--------------------------------------------------------
B|--------------------------------------------------------
G|-------------------------------------------7------------
D|-------5-------------------2---------------7------------
A|-------5-------------------2---------------5------------
E|-------3-------------------0----------------------------
Where once we watched the small free bird fly

e|--------------------------------------------------------
B|--------------------------------------------------------
G|---------------------5--------------------------------7-
D|-----5---------------5------------5-------------------7-
A|-----5---------------3------------5-------------------5-
E|-----3----------------------------3---------------------
Our love was on the wing, we had dreams and songs to sing

e|--------------------------------------------------------
B|--------------------------------------------------------
G|-----7--------------------------------------------------
D|-----7------------------------------5-------------------
A|-----5------------------------------5-------------------
E|------------------------------------3-------------------
It's so lonely round the fields of Athenry.

2nd verse same as the first
a little bit louder
add distortion and muting
use the lyrics in the intro as a guide
C now = x D now = x G now = x
x x x
5 7 x
5 7 5
3 5 5
x x 3
-=riff 1=-

e|--------------------------------------------------------
B|--------------------------------------------------------
G|--12\--7\--5--------------------------------------------
D|--------------------------------------------------------
A|--10\--5\--3--------------------------------------------
E|--------------------------------------------------------
-=solo=-
p signifies pull off..
h for hammer on

e|--------------------------------------------------------
B|--------------------------------------------------------
G|------------4------4-5--5-7--5p4------------------------
D|--------5-7---------------------5h7-------5--4--5--7----
A|--5-5-5-------------------------------------------------
E|--------------------------------------------------------

e|--------------------------------------------------------
B|----5---------------------------------------------------
G|-7----7-5----4-5--7-5-4---------------------------------
D|-------------------------7---5h7p5-4--------------------
A|--------------------------------------------------------
E|--------------------------------------------------------

e|--------------------------------------------------------
B|----------5---------------------------------------------
G|----4-5-7---7-5--4-5---5-4-------4----------------------
D|--5------------------------7-5-7---7--------------------
A|--------------------------------------------------------
E|--------------------------------------------------------
e|--------------------------------------------------------
B|--------------------------------------------------------
G|-------4-5-4-------------5-7----------------------------
D|---7-7--------7-5-4-5--------7-9------------------------
A|-5------------------------------------------------------
E|-----------------------------------15\------------------