CompleteControl

Total Chaos-

Complete Control

intro:

|------------------------------------------|
|------------------------------------------|
|------------------------------------------|
|----------8-8-----------------------------|
|-8xxxxxxx-6-6-8xxxxxxx-6-6----------------|
|-6xxxxxxx-----6xxxxxxx-4-4----------------|
(once again, the x represents palm muting.)

|------------------------------------------|
|------------------------------------------|
|------------------------------------------|
|-8-8-8-8-8-8-------1----------------------|
|-6-6-6-6-6-6-8-8-8-8-5-5-5-5-5-6-6-6-6-6--|
|-------------6-6-6---3-3-3-3-3-4-4-4-4-4--|
"No time to be wasted, hanging 'round with you..."
(this time, the 1 represents a the tenth fret.)

|------------------------------------------|
|------------------------------------------|
|------------------------------------------|
|-8-8-8-8-1-1------------------------------|
|-6-6-6-6-8-8-5-5-5-5-6-6-6-6--------------|
|-------------3-3-3-3-4-4-4-4--------------|
"I want Control, I've got to get Control..."
(the one represents the tenth fret once
again.)