Beth (SecretSong)

No Use For a Name-

Beth

-=intro=-
(clean)

E-|-x-x-x-x-|-3--3-3-3-3-2-0------------|---------------1---|
B-|-x-x-x-x-|-0--0-0-0-------3----1---1-|---0---1---3-------|
G-|-x-x-x-x-|-0--0-0-0----------2---2---|-0---0---0---0---0-|
D-|-x-x-x-x-|-0--0-0-0------------------|-------------------|
A-|-x-x-x-x-|-2--2-2-2------------------|-------------------|
E-|-x-x-x-x-|-3--3-3-3------------------|-------------------|

E-|-3--3-3-3--------------------1--|
B-|-0--0-0-0-4-3-1-3---1---1--3-1--|
G-|-0--0-0-0---------2---2------2--|
D-|-0--0-0-0--------------------3--|
A-|-2--2-2-2-----------------------|
E-|-3--3-3-3-----------------------|

Verse:
(with distortion)

C(pm) A
(pm)/G(pm)
Beth I hear you calling but I can't go home right now
F(pm) /C
(pm) E(pm)
Me and the boys will be playing and we just can't find the sound

A G F E
Just a few more hours I'll be right home to you
D Fii Gii
I think I hear them calling
A A G F G C
Oh beth what can I do Beth what can I do

2nd Verse:

Sometimes I hear you're lonely And our house just made a home
I'm always somewhere else And you're always there alone
Just a few more hours I'll be right home to you
I think I hear them calling Oh beth what can I do Beth what can I do

Bridge:

E-|----------------|----------------------------|
B-|----------------|----------------------------|
G-|-12---11-9-7-5--|---5---5------4---5---7---9-|
D-|----------------|-7---7---7--5---5---7---7---|
A-|----------------|----------------------------|
E-|----------------|----------------------------|
E-|----------------|------------------|
B-|----------------|------------------|
G-|-12---11-9-7-5--|---5---5----7--9--|
D-|----------------|-7---7---7--------|
A-|----------------|------------------|
E-|----------------|------------------|

Solo?

3rd Verse:
C(pm) A
(pm)/G(pm)
Beth I know you're lonely And I hope you'll be alright
F(pm) G
Me and the boys will be playing
All night!

Bridge (x4)

Outro:

E-|----------------------------------------15--15------------|
B-|----------15--17--------------15--17>18-------------------|
G-|------17------------------17---------------------17-------|
D-|--17------------------17----------------------------------|
A-|----------------------------------------------------------|
E-|----------------------------------------------------------|

E-|--------------------15--15--------------------------------|
B-|----------15--17/18---------18-18--17--15---15------------|
G-|------17----------------------------------------17-16-17--|
D-|--17------------------------------------------------------|
A-|----------------------------------------------------------|
E-|----------------------------------------------------------|

E-|-------------------------|
B-|-------------------------|
G-|-13-13-12-12-13-13-15-15-|
D-|-------------------------| x3
A-|-11-11-10-10-11-11-13-13-|
E-|-------------------------|

E-|-------------------------|
B-|-------------------------|
G-|-13-13-12-12-10-10-12-12-|
D-|-------------------------|
A-|-11-11-10-10--8--8-10-10-|
E-|-------------------------|

E-|-------------------------|
B-|-------------------------|
G-|-13-13-12-12-13-13-15-15-|
D-|-------------------------| x3
A-|-11-11-10-10-11-11-13-13-|
E-|-------------------------|

E-|-------------------------|
B-|-------------------------|
G-|-13-13-12-12-10-10-12-12-|
D-|-------------------------|
A-|-11-11-10-10--8--8-10-10-|
E-|-------------------------|

Muck around till end.