Babylon

Total Chaos-

Babylon

-=-Intro-=-

----------------------------------------------------------------------
----------------------------------------------------------------------
----------------------------------------------------------------------
4----4------7-6-4-----2----2------7-6-4-------------------------------
4----4------7-6-4-----2----2------7-6-4-------------------------------
2----2------6-5-2-----1----1------6-5-2-------------------------------

and repeat that there intro until you feel good and ready to sing-a-long with Robby.

-=-Verse-=-

----------------------------------------------------------------------
----------------------------------------------------------------------
----------------------------------------------------------------------
4------------7--6--4------2---------4-4-------------------------------
4-~~~~~~~~~--7--6--4------2-~~~~~~~-4-4-------------------------------
2------------6--5--2------1---------2-2-------------------------------

and repeat (AND SING..ha) that there verse riff until you get back the that there good old bridge type intro. then play this:

-=-Bridge-=-

----------------------------------------------------------------------
----------------------------------------------------------------------
----------------------------------------------------------------------
4----4------7-6-4-----2----2------7-6-4-------------------------------
4----4------7-6-4-----2----2------7-6-4-------------------------------
2----2------6-5-2-----1----1------6-5-2-------------------------------

(that there is also the chorus)