Site hosted by Angelfire.com: Build your free website today!

Vientos Del Pueblo

Am                    G 
De nuevo quieren manchar 
    Dm                 Am
mi tierra con sangre obrera 
      Dm                E
los que hablan de libertad 
   E7               Am
y tienen las manos negras 
            Am7+     C
los que quieren dividir 
  Em              Bm
a la madre de sus hijos 
   F              Dm
y quieren reconstruir 
    Dm7                 E       E7
la cruz que arrastrara Cristo 
    Am                G 
Quieren ocultar la infamia 
    Dm            Am
que legaron desde siglos, 
    Dm               E
pero el color de asesinos 
   E7             Am
no borrarán de su cara 
           Am7+    C
ya fueron miles y miles 
      Em              Bm
los que entregaron su sangre 
      F           Dm
y en caudales generosos 
   Dm7             E       E7
multiplicaron los panes. 
INTERLUDIO: (original en tiple, arreglo para guitarra)
     Am          D    F            C  E7       Am
E |----------------------------------------0----------
B |--5--------8--7----6--------6---5--3--------1-------
G |-----5---5----7-------5---5-----5--1--------2-------
D |-------7------0---------7-------5--2--------2-------
A |--0----------------8------------3-----------0-------
E |-----------------------------------0-----------------
 Am             G 
Ahora quiero vivir 
    Dm                  Am
junto a mi hijo y mi hermano 
    Dm            E
la primavera que todos 
   E7                 A     
vamos construyendo a diario 
     F#m            C
no me asusta la amenaza 
    Am           Gm    -   Gm6 
patrones de la miseria         
                       D    
la estrella de la esperanza 
   Dm               Am
continuará siendo nuestra. 
INTERLUDIO:(original en tiple, arreglo para guitarra)
     Am          D    F             G   Dm           C     E
E |-------------------------------------10-------10--12-12-10-10-0-----
B |--5--------8--7----10--------10--12----10--10-------------------1-----
G |-----5---5----7-------10--10-----12------10---------------------2----
D |-------7------0---------10-------12--0--------0-----------------2-----
A |--0----------------8---------8---10-----------------------------0-----
E |--------------------------------------------------8--8--0--0--------
    Am                  G 
Vientos del pueblo me llaman 
    Dm                 Am
vientos del pueblo me llevan 
     Dm             E
me esparcen el corazón 
    E7              Am
y me avientan la garganta 
 Am7+            C
así cantará el poeta 
     Em              Bm
mientras el alma me suene 
     F               Dm
por los caminos del pueblo 
       Dm7          E7       F     Am
desde ahora y para siem....pre. 


*El título y los versos finales están inspirados en el poema de Miguel Hernández Viento del Pueblo.

Acordes usados :

     Am7+ E7 Dm7 Gm  Gm6
E||---0---0---1---3---3----
B||---1---3---1---3---3----
G||---1---1---2---3---3----
D||---2---2---0---5---2----
A||---0---2---0---5--------
E||---0---0-------3--------
 
Transcrito por: Maikel B. © 

Título: Vientos Del Pueblo.
Álbum(es): Manifiesto (1973)
Autor(es): Víctor Jara.
Instrumentos Usados: Guitarra, tiple, quenas, charango.