Site hosted by Angelfire.com: Build your free website today!

Lo Único Que Tengo

Intro :

     C#m                     B                      A
E||-----------------------|----------------------|----------------------|
B||--------9-----9-----9--|-------7-----7-----7--|-------5-----5-----5--|
G||------9-----9-------9--|-----8-----8-------8--|-----6-----6-------6--|
D||-----------------------|----------------------|----------------------|
A||-----------------------|----------------------|----------------------|
E||---9------9------9-----|--7------7------7-----|--5------5------5-----|


  G#m                    A                      G#m                    F#m7         G#m6
----------------------|----------------------|-------------------0--|-------0-------0----|
-------4-----4-----4--|-------5-----5-----5--|-------4-----4-----4--|-------2----2--4----|
-----4-----4-------4--|-----6-----6-------6--|-----4-----4-------4--|-----2------2--4----|
----------------------|----------------------|----------------------|--------------------|
----------------------|----------------------|----------------------|--------------------|
--4------4------4-----|--5------5------5-----|--4------4------4-----|--2------2-----4----|


  E            B7/F#      E(* rasgueo de dedo índice hacia arriba) D6                        
-----------------------|------------0--0----|------------0--0----|-------2-----2------|
-------------------0---|------------0--0----|------------0--0----|-------0-----0------|
-------1-1--1------2---|-----1*--1--1--1----|-----1*--1--1--1----|-----2-----2--------|
-----2---2--2----1---1-|-----2*--2--2--2----|-----2*--2--2--2----|--0------0----------|
---------2--2----------|-----2*--2-----2----|-----2*--2-----2----|--------------------|
--0------0-----2-------|--0------0-----0----|--0------0-----0----|--------------------|
                   Fin Intro          Quién   me_i-ba_a de-cir a   mí,            có - 

  B7                   E                    G                       E                     
-------2----2--2----|------------0--0----|-----------------------|------------0--0----|
-------4----4--4----|------------0--0----|-----------------------|------------0--0----|
-----2---2--2--2----|-----1*--1--1--1----|-------0----0----------|-----1*--1--1--1----|
---------4-----4----|-----2*--2--2--2----|-----0---0--0----0---0-|-----2*--2--2--2----|
--2------2-----2----|-----2*--2-----2----|---------2--2------2---|-----2*--2-----2----|
--------------------|--0------0-----0----|--3------3-----3-------|--0------0-----0----|
mo me_iba_a ima - gi - nar,          si     yo no ten-go_un lu -   gar,           si

  G                       A                    C            D7       G            B7/F#
-----------------------|------------0--0----|---------------------|---------------------|
-----------------------|-----2*-----2--2----|---------------------|------------------4--|
-------0----0----------|-----2*--2--2--2----|-------5----5-----5--|-------4----4-----2--|
-----0---0--0----0---0-|-----2*--2--2--2----|-----5------5-----7--|-----5------5--------|
---------2--2------2---|--0------0-----0----|--3------3-----5-----|---------------------|
--3------3-----3-------|--------------------|---------------------|--3------3-----2-----|
  yo no ten-go_un lu -   gar,           si     yo no tengo_un lu -  gar     en la    tie - 

  E                    F#                   C#m                    F#              
------------0--0----|--------------------|-------4-----4-----4--|--------------------|
-------0----0--0----|------------2--2----|-----5-----5-------5--|------------2--2----|
-----1------1--1----|-------3----3--3----|----------------------|-------3----3--3----|
---------2-----2----|-----4---4--4--4----|----------------------|-----4---4--4--4----|
---------2-----2----|---------4-----4----|--4------4------4-----|---------4-----4----|
--0------0-----0----|--2------2-----2----|----------------------|--2------2-----2----|
  rra.         Y mis manos son lo único que ten  -  go,    y mis manos son mi_amor y mi sus - 

  C#m                    A                    E            A       G            B7/F#
-------4-----4-----4--|-------0----0--0----|------------0--0----|---------------------|
-----5-----5-------5--|-----2------2--2----|-------0----0--2----|-------0----0-----4--|
----------------------|---------2--2--2----|-----1---1--1--2----|-----0------0-----2--|
----------------------|---------2-----2----|---------2-----2----|---------------------|
--4------4------4-----|--0------0-----0----|---------2-----0----|---------------------|
----------------------|--------------------|--0------0----------|--3------3-----2-----|
  ten - to,      y mis manos son lo único que ten - go son mi_a - mor  y  mi  sus-ten - 

  E                   
------------0--0-----||
-------0----0--0-----||
-----1------1--1-----||
---------2--2--2-----||
---------2-----2-----||
--0------0-----0-----||
  to.

Intro (variante)

     C#m                       B                         A
E||-------------------------|-------------------------|-------------------------|
B||------9-----9-------9----|------7-----7-------7----|------5-----5-------5----|
G||------9-----9-----9---9--|------8-----8-----8---8--|------6-----6-----6---6--|
D||-------------------------|-------------------------|-------------------------|
A||-------------------------|-------------------------|-------------------------|
E||---9------9-----9--------|---7-------7----7--------|---5------5-----5--------|


  G#m                        A                       G#m                     
-------------------------|-------------------------|-------------------0----|
------4-----4-------4----|------5-----5-------5----|-----4-----4-------4----|
------4-----4-----4---4--|------6-----6-----6---6--|-----4-----4-----4---4--|
-------------------------|-------------------------|------------------------|
-------------------------|-------------------------|------------------------|
---4------4-----4--------|---5------5-----5--------|--4------4-----4--------|


 F#m7         G#m6     E            B7/F#      
-------0-------0----|-----------------------|
-------2----2--4----|-------------------0---|
-----2------2--4----|-------1-1--1------2---|
--------------------|-----2---2--2----1---1-|
--------------------|---------2--2----------|
--2------2-----4----|--0------0-----2-------|
                   

No hay casa donde llegar,
mi paire y mi maire están
más lejos de este barrial
más lejos de este barrial
más lejos de este barrial
que una estrella.

Y mis manos son lo único que tengo
y mis manos son mi amor y mi sustento,
y mis manos son lo único que tengo,
son mi amor y mi sustento.

Intro (variante)

Quién me iba a decir a mí,
que yo me iba a enomorar,
cuando no tengo un lugar
cuando no tengo un lugar
cuando no tengo un lugar
en la tierra.

Y mis manos son lo único que tengo
y mis manos son mi amor y mi sustento,
y mis manos son lo único que tengo,
son mi amor y mi sustento.



Acordes usados :

    B7/F#  B7  B7/F#* F#m7 G#m6 C  D7
E||---2----2----2------0----0---3---5----
B||---0----4----4------2----4---5---7----
G||---2----2----2------2----4---5---5----
D||---1----4----4------2----4---5---7----
A||--------2--------------------3---5----
E||---2----2----2------2----4---3---5----
 
Transcrito por: Maikel B. © 

Título: Lo Único Que Tengo.
Álbum(es): La Población (1972)
Autor(es): Víctor Jara.
Instrumentos Usados: Guitarra, (cantado por Isabel Parra).