Site hosted by Angelfire.com: Build your free website today!

We The Fallen: Letters


'Letters' as written By Dan Dawson

Tuning: Down One whole step D-G-C-F-A-d

Verse-Clean Channel
---------------------------------------------------------------
-----------------------0-----------------------------0---------
--------------0----0-----0---0-------------------0-----0---0---
----5-----5---4------4-----4--------5-----5-4------4-----4-----
3-3-3-3-3-3-3-2--2--------------3-3-3-3-3-3-2--2---------------
0-0-0-0-0-0-0-------------------0-0-0-0-0-0--------------------


-----------------------0------------------------x-x-xx-xx-xx---
-------------------0-----0---0---------------0--x-x-xx-xx-xx---
--------------0------0-----0-----------------0--0-0-00-00-00---
----5-----5---7--7-----------------5-----5---9--9-9-99-99-99---
3-3-3-3-3-3-3-5----------------3-3-3-3-3-3-3-7--7-7-77-77-77---
0-0-0-0-0-0-0------------------0-0-0-0-0-0-0-------------------


chorus-distortion effect
------------------------------------------
------------------------------------------
4-4-444------------7-77-5-7-77-77-4-5-4-4-
4-4-444-3-3-33333--7-77-5/7-77-77x4/5/4-4-
2-2-222-3-3-33333--5-55-3/5-55-55x2/3/2-2-
2-2-222-1-1-11111-------------------------


------------------------------------------
------------------------------------------
4-4-444-----------7-7-9999-10-9-10-5-5----
4-4-444-3-3-33333-7-7-9999-10-9-10-5-5----
2-2-222-3-3-33333-5-5-7777-8--7-8--3-3----
2-2-222-1-1-11111-------------------------