Foo Fighters - Up In Arms
(Normal Tuning)


Verse
e||--3---3---0---3---1---4---3--||
B||--1---1---1---3---1---4---1--||
G||--0---0---2---0---2---5---0--||
D||--2---x---2---0---3---6---2--||
A||--3---2---0---2---3---6---3--||
E||--------------3---1---4------||


Chorus
e||--1---4---3-----0-----1-----4-----3--||
B||--1---4---1-----1-----1-----4-----1--||
G||--2---5---0-----2-----4-----5-----0--||
D||--3---6---2-----2-----3-----6-----2--||
A||--3---6---3-----0-----3-----6-----3--||
E||--1---4---------------1-----4--------||


Solo
e||-----------------------------------------------------------------|
B||-----------------------------------------------------------------|
G||--9--7----------------7-------------------9--9--9--9--9--9--9--9-|
D||--------7--10--7--10-----10--7--10--7--5-------------------------|
A||-----------------------------------------------------------------|
E||-----------------------------------------------------------------|

e|-----------------------------------------------------------------||
B|----8-----7---------------------------------5--5--5--5--5--5--5--||
G|-9-----9----------------7-------------------5--5--5--5--5--5--5--||
D|-------------10--7--10-----10--7--10--7--5--5--5--5--5--5--5--5--||
A|-----------------------------------------------------------------||
E|-----------------------------------------------------------------||

_______________________
www.foofighterstabs.com
Site hosted by Angelfire.com: Build your free website today!