Foo Fighters - Live-In Skin
(Drop D Tuning)


Main Riff
e||----------------------------------|----------------------------------||
B||----------------------------------|----------------------------------||
G||----------------------------------|----------------------------------||
D||----------------------------------|----------------------------------||
A||------5-----5-----------------4-5-|-----5-----5--5-5-7-5-4-7-5--4-5--||
D||--0-5---0-4---0-2-2-0-0-2-0-0-----|-0-5---0-4------------------------||


Chorus
D5  C5  D5  G5
D5  Bb5  C5  G5
e||---------|---------||
B||---------|---------||
G||---------|---------||
D||---------|---------||
A||---3-5-2-|---1-3---||
D||-0-------|-0-----5-||


Bridge
D5 Bb5 (3x)
C5 G (5th fret, 6th string)


Outro
e||----------|----------------------------------||
B||----------|----------------------------------||
G||----------|----------------------------------||
D||----------|----------------------------------||
A||--4h5p4p0-|-----5-----5-----------------4-5--||
D||----------|-0-5---0-4---0-2-2-0-0-2-0-0------||

_______________________
www.foofighterstabs.com
Site hosted by Angelfire.com: Build your free website today!