Exhausted
(Drop D tuning)


Intro/Verse
     Dm G7 F9 Am F9 Am
e||--1--1--0--0--0--0--|-----------||
B||--3--3--1--1--1--1--|-----------||
G||--2--0--0--2--0--2--|-----------||
D||--0--0--3--2--3--2--|--8--7--5--||
A||-----2--3--0--3--0--|--8--7--5--||
D||--------0-----0-----|--8--7--5--||


Chorus
e||---------------------------------------------------||
B||---------------------------------------------------||
G||---------------------------------------------------||
D||--0---3---5---7---3---0--3--7--3--0--3--5--7--7-7--||
A||--0---3---5---7---3---0--3--7--3--0--3--5--7--7-7--||
D||--0---3---5---7---3---0--3--7--3--0--3--5--7--7-7--||


Lyrics & Tempo

(Verse 1)
I'm not around that much running exhausted and lost.
Dm              G7        F9      Am      F9   Am 

If it could be undone will it have costed? It's taught and lost.
Dm          G7        F9      Am           F9          Am


(Verse 2)
Blowing away we stray, wilted insuited, at fault.
Dm           G7        F9     Am       F9  Am

What if the day had stayed in bed. These baubles we've brought. At fault.
Dm          G7      F9        Am   F9            Am


(Chorus)


(Verse 3)
After the bliss has long ended this caution this fault.
Dm        G7             F9         Am     F9    Am

Give me a breeze that's long winded accosted adult arrested.
Dm        G7                 F9     Am      F9     Am
Site hosted by Angelfire.com: Build your free website today!