Everlong by Foo Fighters

Verse
G -------------------------------------------------------------------------- 
D --------------------------------------------------------------------------- 
A ----5-------2------------------------2------------------------------------- 
E -----------------3-3-3-3-3-3-3-3------------------------------------------- 

In the A chord you play about 14 times each note.

Bridge
G --------------------------------------------------------------------------- 
D ----------------4---------------------------------------------------------- 
A -------4-5-7-------7-5----------------------------------------------------- 
E --------------------------------------------------------------------------- 

Chorus
G --------------------------------------------------------------------------- 
D --------------------------------------------------------------------------- 
A -2-2-2-2-2-2-2-2---------------------5-5-5-5-5-5-5-5-5-5-5-5-5-5----------- 
E ---------------------3-3-3-3-3-3-3-3--------------------------------------- 

Repeat this 2x and at the third time you play this.

G --------------------------------------------------------------------------- 
D ---------------------------------------------------------------------------A -2-2-2-2-2-2-2-2--------------------5-5-5-5-5-5-5-5-0-0-0-0-0-0-0-0-------- 
E ------------------3-3-3-3-3-3-3-3----------------------------------------3-

 You play the last 3 about 14 times ....That's it.
Site hosted by Angelfire.com: Build your free website today!