Site hosted by Angelfire.com: Build your free website today!

Blink 182-All the Small Things


Home
Guitar Guide

Blink 182
All the Small Things
Enema of the Statae
Tabbed by Mike (Vmike311@aol.com)
-------------------------------------
www.estein.com/blink182
-------------------------------------

Chord Chart

C Fii G F Eii D
e|-----------------------------------
b|-----------------------------------
g|---5---10---------------9----7--
d|---5---10----5----3--- 9 ---7--
a|---3----8-----5----3----7---5---
e|---------------3----1-------------

Intro: C, Fii, G, F

Verse: (All PM)

C G F G
All the small things, True care, truth brings

C G F G
I'll take, one lift, Your ride, best trip

C G F G
Always, I know, You'll be at at my show

C G F G
Watching, waiting, Commiserating

Chorus:

C
Say it ain't so, I will not go
Turn the lights off, carry me home

C G F
Na, Na, Na, Na, Na, Na, Na, Na,.....

C G F
Na, Na, Na, Na, Na, Na, Na, Na,.....

Intro 2: C, Fii, Eii, D, F

Verse:

C G F G
Late night, come home, Work sucks, I know

C G F G
C
She left me roses by the stairs, Surprises let me know she cares

Chorus:

C
Say it ain't so, I will not go
Turn the lights off, carry me home

C G F
Na, Na, Na, Na, Na, Na, Na, Na,.....

C G F C
Na, Na, Na, Na, Na, Na, Na, Na,.....

Bridge:

(PM)
e|--------|
b|--------|
g|--5----|
d|-----5-|
a|--------|
e|--------|

Ending:

C
Say it ain't so, I will not go
G F
Turn the lights off, carry me home
C
Keep your head still, I'll be thrill
G F
The night will go on, my little windmill
C
Say it ain't so, I will not go
G F
Turn the lights off, carry me home
C
Keep your head still, I'll be thrill
G F
C
The night will go on, The night will go on, my little windmill

sOLO:
----------------------------------------------------------------------
----------------------------------------------------------------------
-----5---5---5---5---4---4---7---7-----5---5---5---5---4---4---7---7--
-------5---5---5---5---5---5---5---5-----5---5---5---5---5---5---5---
----------------------------------------------------------------------
----------------------------------------------------------------------
Thats it, you have to palm mute it if you want it to sound like Tom
plays it. It's simple.

Home
Guitar Guide