Site hosted by Angelfire.com: Build your free website today!

BUONTEMPO

BUONTEMPO (1993)

______________________________________________________________________________________________

Oggi non si sta fermi un momento
FA                  SIb               FA
oggi non si sta in casa, che buontempo
FA                     SIb            FA
oggi non si rischia n pioggia e n vento, eh no
SIb            DO         FA(riff 1)    SIb9(riff 2)  FA
E poi non ci si muove come sempre a stento,
vedi, si va a tempo
tu vestiti come un angelo caduto sulla terra
da questo cielo che oggi il mio occhio non afferra
vestiti come un angelo che giri per la terra
fallo per questo cuore senza pace, senza guerra, per me!

Al lavoro non stavo fermo un momento, ah no
sono tornato a casa col buontempo
oggi non si sogna di navigare
il mare lo andiamo a salutare, il mare lo andiamo a salutare!
Tu vestiti come angelo caduto sulla terra
da questo cielo che oggi il mio occhio non afferra
vestiti come un angelo che giri per la terra
fallo per questo cuore senza pace, senza guerra, per me!

Oggi non si sta fermi un momento
oggi non si sta in casa che buontempo
oggi non si rischia n guerra e n vento, no.

 

Intro:

|---------------------------------------------------------------------------------------------------
|---------------------------------------------------------------------------------------------------
|---------------------------------------------------------------------------------------------------
|------3---3---3---3------0-------3---3---3---3----------0--3---3---3---3---3------0-----------
|------3---3---3---3------1---3---3---3---3---3---1--3-----3---3---3---3---3------1----3------
|---1-------------------1------1------------------------------1--------------------1-------1------

|-------------------------3----1--------------------------------------------------------3----------
|-------------------------3----1---1--1--1--1---3--1--1--1--1---3--1---1--1--1-----3----------
|-------------------------3----2---2--2--2--2---3--2--2--2--2---3--2---2--2--2-----3----------
|---3---3---3---3---3-----------------------------------------------------------------------------
|---3---3---3---3---3-----------------------------------------------------------------------------
|---------------------------------------------------------------------------------------------------

|---5------5--6--8----8--5----------------------------------------------------------3-------------
|---6--8---6--6--8----8--6--8-------1--1--1--3---1--1--1--1---3--1---1--1--1---3-------------
|------7----------------------7-------2--2--2--3---2--2--2--2---3--2---2--2--2---3-------------
|---------------------------------------------------------------------------------------------------
|---------------------------------------------------------------------------------------------------
|---------------------------------------------------------------------------------------------------

|--5-----5--6--8----8--5-----------
|--6--8--6--6--8----8--6--8-------
|-----7---------------------7-------
|------------------------------------
|------------------------------------
|------------------------------------

Riff 1:                  Riff 2:

|---1-------------------------------
|------1----------1-----------------
|-----------2--------3--------------
|-------------------------3---------
|------------------------------------
|----------------------------1------

Torna all'indice