Site hosted by Angelfire.com: Build your free website today!

HELPLESS - FAITH NO MORE (ALBUM OF THE YEAR)

TRANSCRIBED BY ALBERT IGNASKY

 

INTRO

 

d -9----7----10- strum each power chord multiple times

a -7----5-----8-

 

VERSE

 

here is the chord structure look at chord chart at the bottom

 

E D F (play 4x)

 

BRIDGE (i guess you would call it that)

 

G F (play 3x) then G E

 

PRE-CHORUS

 

E F (play 4x)

 

CHORUS

 

a -7-7-7-7-7-7-9-9-9-9-9-9-10-10-10-10-10-10--

e -5-5-5-5-5-5-7-7-7-7-7-7-8--8--8--8--8--8---

 

CHORD CHART

 

E D F G

e -0----2----1----3----

b -0----3----1----3----

g -1----2----2----0----

d -2----0----3----0----

a -2----0----3----2----

e -0---------1----3----

 

This has to be my favorite song on the album. Enjoy