Site hosted by Angelfire.com: Build your free website today!

Black Metal

Tune E-string one whole step down (to D)

VERSE:
Riff A  (2x):
G|-------------|-------------|--------------|--------------|
D|-------------|-------------|--------------|--------------|
A|-------------|-------------|--------------|-----------5--|
D|-8--5--5--5--|-7--5--5--5--|-6--5--5--5---|--3--0--0-----|

Riff B (1x):
G|-------------|-------------|-------------|---------------|
D|-------------|-------------|-------------|---------------|
A|-3--0--0--0--|-5--0--0--0--|-3--0--0--0--|-3--0-----0---3|
D|-------------|-------------|-------------|-------5-------|

Repeat Riff A once

CHORUS:
The Bass just keeps playing a G
G|-----|   end    |-----------|
D|-----|   with   |-----------|
A|-----|   this:  |-----------|
D|--5--|          |-5--5--5--0|


REPEAT VERSE AND CHORUS

BREAKS 1:
G|----------|----------|---------|--------| 
D|----------|----------|---------|--------|
A|----------|----------|--------3|5-------|
D|---------2|3--------3|5--------|--------|

Riff C:
G|----------------|-------|-------|--------------|
D|----------------|-------|-------|--------------|
A|----------------|-------|-------|--------------|
D|-7-7-7-7-7-7-7-7|---%---|---%---|-7-7-7-7-5-0-6|

Repeat Riff C, but end with more sevens

then play:
G|-----------------|-----------------|
D|-----------------|-----------------|
A|-5---3---3-3-3-3-|-3-3-3-3-3-3-3-3-|
E|-----------------|-----------------|

Breaks 2:
G|------------|------------|--------------|------------|
D|------------|------------|--------------|------------|
A|------------|------------|--------------|------------|
E|5----------8|8----------8|8------------8|8-----------|

then:
G|-----------------|-----------------|
D|-----------------|-7-7-7-7-7-7-7-7-|
A|-----------------|-----------------|
D|-7-7-7-7-7-7-7-7-|-----------------|

Repeat Breaks 2 and then:
G|-----------------|-----5-6-7-|
D|-----------------|---7-------|
A|-5-5-5-5-5-5-5-5-|-5---------|
D|-----------------|-----------|

Repeat Verse and chorus