MoneyChords
Resources

BIAB

BIAB Midi

Lyrics

MoneyChords
Store

(I Love You) For Sentimental Reasons

Here are the fingerings that I use to play a chord-melody arrangement of William Best and Deek Watson's 1945 standard (I Love You) For Sentimental Reasons . I play it in the key of C not the original key of F. The song is a medium ballad played in 4/4 time. I used the chord progression from the "Jazz of the 50's (Jazz Bible Fake Book Series)" to create this chord-melody arrangement.

A
           CM7  Am7     Dm7  G7            CM7 Am7
E--5--||---3-3---3---|---3---1-0-------|---0-0--0---|
B--4--||---0-----1---|---1---0---3-1---|---0----1---|
G--4--||---0-----0---|---2---0---------|---0----0---|
D--3--||---2-----2---|---0---0---------|---2----2---|
A-----||---3-----0---|-----------------|---3----0---|
E-----||-------------|-------3---------|------------|
        1.            2.                3.

  Dm7 G7           CM7 Am7    Dm7 G7        Em7 A7  
E--1--0---0----|------------|--0---------|---0--0---|
B--1--0-3------|---1-1--1---|--1--3-1-3--|---0--2---|
G--2--0-----0--|---0----0---|--2--0------|---0--0---|
D--0--3--------|---2----2---|--0--3------|---0--2---|
A-----2--------|---3----0---|-----2------|---2--0---|
E-----3--------|------------|-----3------|---0------|
 4.             5.           6.           7.
A1
  Dm7 G7     CM7 Am7     Dm7 G7           CM7  Am7
E--0--5--||--3-3--3---|---3--1-0-------|---0-3--0---|
B--1--5--||--0----1---|---1--0---3-1---|---0----1---|
G--2--4--||--0----0---|---2--0---------|---0----0---|
D--0--3--||--2----2---|---0--0---------|---2----2---|
A--------||--3----0---|----------------|---3----0---|
E-----3--||-----------|------3---------|------------|
 8.        9.          10.              11.

  Dm7 G7          CM7 Am7   Dm7 G7          CM7 Bb7   
E--1--0---0----|----0-----|--0-----------|----------|
B--1--0-3------|--1----1--|--1--3-1-0-3--|---1--1---|
G--2--0-----0--|--0----0--|--2--0--------|---0--1---|
D--0--3--------|--2----2--|--0--3--------|---2--3---|
A-----2--------|--3----0--|-----2--------|---3--1---|
E-----3--------|----------|-----3--------|----------|
 12.            13.        14.            15. 
B
   CM7       Dm7    G7      Em7  A7     Dm7    G7
E--------||--5-5-5--7-5--|---3---3---|--1-1-1--5-3--|
B--1--1--||--6---6--6----|---0---2---|--1------5-3--|
G--0-----||--5---5--7----|---0---0---|--2------4-4--|
D--2-----||--0---0--5----|---0---2---|--0------3-3--|
A--3-----||--------------|---2---0---|-----------5--|
E--------||--------------|---0-------|---------3-3--|
 16.       17.            18.         19.

    CM7      Bm7b5   E7b9     Am7        D7
E----0----|----------1-0--|-------0---|--5-5---3-2--|
B----0----|--3-3-3---0----|---3-1-1---|--3-----1----|
G----0----|--2-------1----|---0---0---|--5-----2----|
D----2----|--3-------0----|---2---2---|--4-----0----|
A----3----|--2------------|---0---0---|-------------|
E---------|----------0----|-----------|-------------|
 20.       21.             22.         23.
A2
  Dm7 G7       CM7  Am7   Dm7 G7           CM7  Am7
E--3--5---||---3-3--3---|--3--1-0------|---0-0--0---|
B--1--5---||---0----1---|--1--0---3-1--|---0----1---|
G--2--4---||---0----0---|--2--0--------|---0----0---|
D--0--3---||---2----2---|--0--0--------|---2----2---|
A---------||---3----0---|--------------|---3----0---|
E-----3---||------------|-----3--------|------------|
 24.        25.          26.            27.

  Dm7 G7          CM7 Am7   Dm7 G7          CM7 (Am7 
E--1--0---0----|----------|--0-----------|----------|
B--1--0-3------|--1-1--1--|--1--3-1-0-3--|---1------|
G--2--0-----0--|--0----0--|--2--0--------|---0------|
D--0--3--------|--2----2--|--0--3--------|---2------|
A-----2--------|--3----0--|-----2--------|---3------|
E-----3--------|----------|-----3--------|----------|
 28.            29.        30.            31.

   Dm7  G7) 
E------------||
B------------||
G------------||
D------------||
A------------||
E------------||
 32.
Alternate Fingerings

Bars 1 & 2: 

          CM7  Eb7    Dm7 G7
E--5--||--3-3--3--|---3---1-0------|-----------------
B--2--||--1----2--|---1---0---3-1--|-----------------
G--4--||--0----3--|---2---0--------|-----------------
D--3--||--2----1--|---0---0--------|-----------------
A-----||--3-------|----------------|-----------------
E-----||----------|-------3--------|-----------------
        1.         2.

Bars 5 & 6:

    Am7     Gm6     F#m7b5 Fm6 
E---------------|---0----------------|---------------
B---1--1----1---|---1------3--1--3---|---------------
G---0-------3---|---2------1---------|---------------
D---2-------2---|---2------1---------|---------------
A---0-----------|----------3---------|---------------
E-----------3---|---2------1---------|---------------
 5.              6.

Bars 15 & 16 (Turnaround):

    C6  Fm6     C6  Gm11 Gb7b5
E-----------|-----------------|----------------------
B---1---1---|---1-----1---1---|----------------------
G---2---1---|---2-----3---3---|----------------------
D---2---0---|---2-----3---2---|----------------------
A---3-------|---3-------------|----------------------
E-------1---|---------3---2---|----------------------
 15.         16.

    C   Dm7    Ebo7  C/E
E-----------|-----------------|----------------------
B---1---1---|---1-----1-------|----------------------
G---0---2---|---2-----0-------|----------------------
D---2---0---|---1-----2-------|----------------------
A---3-------|-----------------|----------------------
E-----------|-----------------|----------------------
 15.         16.

Bars 17 & 18:

    FM7        F#o7      C/G   A7b9
E---5--5--5----7--5---|---3----3---|-----------------
B---5-----5----4------|---1----2---|-----------------
G---5-----5----5------|---0----3---|-----------------
D---3-----3----4------|---2----2---|-----------------
A---------------------|--------0---|-----------------
E---------------------|---3--------|-----------------
 17.                   18.

    F6         G7 F7     Em7   A7b9
E---5--5--5----7--5---|---3----3---|-----------------
B---3-----3----6--4---|---3----2---|-----------------
G---5-----5----7--5---|---4----3---|-----------------
D---3-----3----5--3---|---2----2---|-----------------
A---------------------|--------0---|-----------------
E---------------------|------------|-----------------
 17.                   18. 


About Us | Chord Progressions | F.A.Q. | Freebies | Guitar Chords | Guitar Lessons | Home Page | Links | Music News | Site Search | Songwriting | Standards | Store | Tablature | WebRings Copyright © 2007 MoneyChords.com