MoneyChords
Resources

Chord-Melody (pdf / justinguitar.com)

Chord-Melody (pdf / L. Kuhns)

Lyrics

Wikipedia

MoneyChords
Store

Rudolph The Red-Nosed Reindeer

Here are the fingerings that I use to play a chord-melody arrangement of Johnny Marks' 1949 Christmas standard Rudolph The Red-Nosed Reindeer . I play it in the key of G not the original key of C. The song is played in a moderate 4/4 time.

Intro

         CM7  Bm7    Am7  GM7   CM7  Bm7   Am7 GM7    
E-0-2-||-3-0--2----|-0----0---|-3-0--2----|-0----0---|
B-----||-0--1-3-3--|-1-1--3-3-|-0--1-3-3--|-1-1--3-3-|
G-----||-0----2--4-|-0--2-4---|-0----2-4-|-0--2-4---|
D-----||-2----4----|-2----4---|-2----4----|-2----4---|
A-----||-3----2----|-0--------|-3----2----|-0--------|
E-----||-----------|------3---|-----------|------3---|

  Em7  B7/F#    Em/G      A7sus4 A7       D7
E-----------|---0-0-2---|--3-3--3-2-0--|-----------||
B--0-0-0-0--|---0-0-----|--3----2------|-3---------||
G--0---2----|---0--0-----|--0----0------|-5---------||
D--0---1----|------------|--2----2------|-4---------||
A--2--------|---2--2-----|--0----0------|-5-5-3-2-0-||
E--0---2----|---3--3-----|--------------|-----------||

A

   GM7   Am9      G6  Am11   GM7     Em7      Am6 D7 
E----0-----3--|---0-------|----0---0----3--|--2---2--|
B--3---3-0----|---3---3---|--3---3---3-----|--1---1--|
G--4-----5----|---4---0---|--4-------0-----|------2--|
D--4-----5----|---2---2---|--4-------0-----|--2---0--|
A--------0----|-------0---|----------2-----|--0------|
E--3----------|---3-------|--3-------0-----|---------|
 1.            2.          3.               4.

  Am11 D/F#D7   Am7 D7    Am11    D7+   GM7G#oAm9D13
E----------2--|--------|----0---0------|------------||
B----3-----1--|--5--3--|--3---3---3-5--|-3-----0--0-||
G--5---5-2-2--|--5--5--|--5-------3----|-4--4--5--5-||
D--5-----0-0--|--5--4--|--5-------4----|-4--3--5--4-||
A--0----------|--0--5--|--0-------3----|----------5-||
E--------2----|--------|---------------|-3--4--5----||
 5.            6.       7.              8.

A

   GM7   CM7      Bm7 Am11   GM7    Bm7 Bbo  D7/A D7 
E----0-----3--|---0-------|----0---0----3--|--2---2--|
B--3---3-0----|---3---3---|--3---3---3--2--|--1---1--|
G--4-----0----|---2---0---|--4-------2--0--|--2---2--|
D--4-----2----|---0---2---|--4-------0--2--|--0---0--|
A--------3----|---2---0---|----------2--1--|--0------|
E--3----------|-----------|--3-------------|---------|
 9.            10.         11.              12.

   Am11 D/F#D7   Am7 D7    Am11   D7 D9     G   G7   
E----------2--|---------|----0---0---5--|---3---3---||
B----3-----1--|--5---3--|--3---3---3-5--|---3---3---||
G--5---5-2-2--|--5---5--|--5-------5-5--|---4---4---||
D--5-----0-0--|--5---4--|--5-------4-4--|---5---3---||
A--0----------|--0---5--|--0-------5-5--|---5---5---||
E--------2----|---------|---------------|---3---3---||
 13.           14.       15.             16.

B

   CM7  C#o      GM7  G#o    Am7 Ab7b5D7/F#  GM7 G#o
E--0-0--3-0--|------------|--------------|-----------|
B--0----2----|---3----3---|-----5--3--1--|-----------|
G--0----3----|---4-4--4---|---5----5--2--|---4---4---|
D--2----2----|---4----3---|---5----4--0--|---4---3---|
A--3---------|------------|---0----------|-----------|
E------------|---3----4---|--------4--2--|---3---4---|
 17.          18.          19.            20.
 
   D/A         DM7/A D#o    Em7 A13 A7    Am11 D/F#
E---------0--|--2-2--2--|---3-3--2--0--|------------||
B----0--3----|--2----1--|---3----2--2--|---3-1------||
G--2----2----|--2----2--|---4----0--0--|---0----2---||
D--0----0----|--0----1--|---2----2--2--|---2----0---||
A--0----0----|--0-------|--------0--0--|---0--------||
E------------|----------|--------------|--------2---||
 21.          22.        23.            24.

A

   GM7  Bm7Bb13  Am7 Ab7b5   GM7    Em7 Eo    Am6 D7 
E----0------3-|---0-------|----0---0----3--|--2---2--|
B--3---3-0--1-|---1---3---|--3---3----3-2--|--1---1--|
G--4-----2--1-|---0---5---|--4--------0-3--|------2--|
D--4-----0----|---2---4---|--4--------0-2--|--2---0--|
A--------2--1-|---0-------|-----------2----|--0------|
E--3----------|-------4---|--3--------0----|---------|
 25.           26.         27.              28.

   Am11 D/F#D7    Am7 D7     Am11   D7 D9      G6   
E-----------2-|-----------|----0---0---5--|----3----||
B----3------1-|---5---3---|--3---3---3-5--|----5----||
G--5---5-2--2-|---5---5---|--5-------5-5--|----4----||
D--5-----0--0-|---5---4---|--5-------4-4--|---------||
A--0----------|---0---5---|--0-------5-5--|----5----||
E--------2----|-----------|---------------|----3----||
 29.           30.         31.             32.

About Us | Chord Progressions | F.A.Q. | Freebies | Guitar Chords | Guitar Lessons | Home Page | Links | Music News | Site Search | Songwriting | Standards | Store | Tablature | WebRings Copyright © 2008 - 2009 MoneyChords.com