MoneyChords
Resources

Notes on Series

Chords & Lyrics

MoneyChords
Store

Penny Lane

Here are the fingerings that I use to play a chord-melody arrangement of The Beatles' 1967 Penny Lane from their "Magical Mystery Tour" album. I play it in the key of D not the original key of B. The song is played in a moderate 4/4 tempo.

               D        Bm7           Em7    Asus
E-----0---||---2-0----------------|--------------0---|
B---3-----||---3---3-2--3-2-0-----|---0--------3-----|
G---------||---2--------2-----2---|---0-2-0--2-------|
D---------||---0--------0---------|---0------2-------|
A---------||------------2---------|---2------0-------|
E---------||----------------------|---0--------------|
            1.                     2.

   D        Bm7         Dm7           Bm7b5
E--2-0---------------|--------0---|---0----------0---|
B--3---3-2--3---0-3--|--1---3-----|---3-3-3-3--3-----|
G--2--------2-2------|--2-2-------|---2--------2-----|
D--0--------0--------|--0---------|---3--------3-----|
A-----------2--------|------------|---2--------2-----|
E--------------------|------------|------------------|
 3.                   4.           5.
                       ____________  ________________
   BbM7      A7sus A7 |1.A7sus A7  ||2. G 
E--1----0--|--1----0--|---0----0---||---0------0-1---|
B--3--3----|--2-3--2--|---3--3-----||---0-0--3-------|
G--2--2----|--0----0--|---0--0-----||---0----0-------|
D--3--3----|--2----2--|---2--2-----||---0----0-------|
A--1--1----|--0----0--|---0--0-----||--------2-------|
E----------|----------|------------||---3----3-------|
 6.         7.         8.            16.

   C            C/E          F             C
E--3-1--0-1--|--3-1--0----|-----|-------|--3-1--0-1--|
B--1----1----|--1----1-3--|--1--|--(1)--|--1----1----|
G--0----0----|--0----0----|--2--|--(2)--|--0----0----|
D--2----2----|--2----2----|--3--|--(3)--|--2----2----|
A--3----3----|--3----3----|--3--|--(3)--|--3----3----|
E------------|--0----0----|--1--|--(1)--|------------|
 17.          18.          19.   20.     21. 

    C/E             F               A 
E---3-1---0-----|---------0-1---|---0-----------0---||
B---1-----1-3---|---1-3---1-----|---2-2-------3-----||
G---0-----0-----|---2-----2-----|---2-----2-2-------||
D---2-----2-----|---3-----2-----|---2-----2---------||
A---3-----3-----|---3-----------|---0-----0---------||
E---0-----0-----|---1-----1-----|-------------------||
 22.             23.             24.

About Us | Chord Progressions | F.A.Q. | Freebies | Guitar Chords | Guitar Lessons | Home Page | Links | Music News | Site Search | Songwriting | Standards | Store | Tablature | WebRings Copyright © 2005 MoneyChords.com